PrimaNota.ru - самый крупный в мире бесплатный архив песенных текстов, аккордов, табулатур и нот


Dječaci - Lovrinac - таба, видео

Регистрация Запомнить меня
Войти через:  Facebook Google Twitter Vk Yandex Mail.ru

Dječaci - Lovrinac - таба, видео

Печатать
Просмотров: 123
Уроки эстрадного вокала в Санкт-Петербурге
DJEČACI-LOVRINAC
TUNING-D TUNING NO CAPO

UVOD (1x)
E||--11-11p10h11p10h11----7-7-7-7----------|
B||----------------------------------------|
G||----------------------------------------|
D||----------------------------------------|
A||----------------------------------------|
E||----------------------------------------|

E||--11-11p10h11p10h11----11-10-8--10------|
B||-----------------------11-11-11-11------|
G||----------------------------------------|
D||----------------------------------------|
A||----------------------------------------|
E||----------------------------------------|

E||--11-11p10h11p10h11----16-14-13-11------|
B||----------------------------------------|
G||----------------------------------------|
D||----------------------------------------|
A||----------------------------------------|
E||----------------------------------------|

E||--11-11p10h11p10h11----11-10-11-13------|
B||-----------------------11-11-11-11------|
G||----------------------------------------|
D||----------------------------------------|
A||----------------------------------------|
E||----------------------------------------|


GLAVNI RIFF (4X)
E||----------------------------------------|
B||----------------------------------------|
G||----------------------------------------|
D||----------------------------------------|
A||-6-6--6-6--6-6--6-6--2-2--2-2--2-2--2-2-|
E||----------------------------------------|

E||----------------------------------------|
B||----------------------------------------|
G||----------------------------------------|
D||----------------------------------------|
A||-6-6--6-6--6-6--6-6--8-8--8-8--8-8--9-9-|
E||----------------------------------------|

E||----------------------------------------|
B||----------------------------------------|
G||----------------------------------------|
D||----------------------------------------|
A||-6-6--6-6--6-6--6-6--8-8--8-8--8-8--9-9-|
E||----------------------------------------|

E||----------------------------------------|
B||----------------------------------------|
G||----------------------------------------|
D||----------------------------------------|
A||-6-6--6-6--6-6--6-6--PAM--PAM--PAM--PAM-|
E||----------------------------------------|

E||----------------------------------------|
B||----------------------------------------|
G||----------------------------------------|
D||----------------------------------------|
A||-6-6--6-6--6-6--6-6---2---6---8---9-----|
E||----------------------------------------|

REFREN (8X)
E||----------------------------------------|
B||----------------------------------------|
G||----------------------------------------|
D||--6----4----3----1----6----4--3--1------|
A||----------------------------------------|
E||----------------------------------------|

GLAVNI RIFF (4X)
PRIJELAZ (1X)
E||--------------------11---10---11---13---|
B||----------------------------------------|
G||-1---3---4---6--------------------------|
D||----------------------------------------|
A||----------------------------------------|
E||----------------------------------------|
Добавлено: 17.06.2016
Вам также может быть интересно:
Другие материалы по этой песне:
  • Аккорды и текст

Страница создана 17.06.2016
http://primanota.ru/djecaci/lovrinac-chords.htm
Привет, Гость.
Предлагаем пройти революционный курс по гитаре.
Подарок от PrimaNota.Ru, забирай!