PrimaNota.ru - самый крупный в мире бесплатный архив песенных текстов, аккордов, табулатур и нот


Dj Tiësto - Love And Run - таба, видео

Регистрация Запомнить меня
Войти через:  Facebook Google Twitter Vk Yandex Mail.ru

Dj Tiësto - Love And Run - таба, видео

Печатать
Просмотров: 152
-------------------------------------------------------------------------------
                             Love and Run - DJ Tiesto
-------------------------------------------------------------------------------
Tabbed by: anon
E-mail:~~~

Tuning: Standard

e|-18----18----18--20--18-----18----18----18--20--18---------------------------|
B|----16----16-------------20----16----16-------------20-----------------------|
G|-----------------------------------------------------------------------------|
D|-----------------------------------------------------------------------------|
A|-----------------------------------------------------------------------------|
E|-----------------------------------------------------------------------------|

e|-18----18----18--20--18-----18----18-----------------15----------------------|
B|----16----16-------------20----16----16--13--16--18--------------------------|
G|-----------------------------------------------------------------------------|
D|-----------------------------------------------------------------------------|
A|-----------------------------------------------------------------------------|
E|-----------------------------------------------------------------------------|



************************************

| /   slide up
| \   slide down
| h   hammer-on
| p   pull-off
| ~   vibrato
| +   harmonic
| x   Mute note
| b   Bend
| pb  Pre-bend
| br  Bend release
| pbr Pre-bend release
| brb Bend release bend

************************************
Добавлено: 31.08.2013
Другие материалы по этой песне:
  • Аккорды и текст

Страница создана 31.08.2013
http://primanota.ru/dj-tiesto/love-and-run-chords.htm
Привет, Гость.
Предлагаем пройти революционный курс по гитаре.
Подарок от PrimaNota.Ru, забирай!