PrimaNota.ru - самый крупный в мире бесплатный архив песенных текстов, аккордов, табулатур и нот


Dj Oetzi - Einen Ster Der Deinen Namen Traegt - таба, видео

Регистрация Запомнить меня
Войти через:  Facebook Google Twitter Vk Yandex Mail.ru

Dj Oetzi - Einen Ster Der Deinen Namen Traegt - таба, видео

Печатать
Просмотров: 88
Artist: DJ Oetzi & Nik P.
Title:  Einen Stern der Deinen Namen traegt
Tuning: E A D G B e  ( The B is in Germany H)
Tabber: FEPO

I've seen good Chord Versions here at Ultimate Guitar,
but no one have all Guitar Chords and Tabs. So i've done it.

I play this amazing Geman Smashhit with Powerchords:

C = C5            G = G5....        and so on

Have Fun :)

You can also play the Piano Part with your guitar like 
showing below ;)


Piano Part: 

e|-12~-15-13-12-----12~-15-13-12-----15-13-12---------|
H|--------------------------------------------15~-----|
G|--------------14---------------14-------------------|
D|----------------------------------------------------|
A|----------------------------------------------------|
E|----------------------------------------------------|

Guitar Riff 1:

e|------------------------------------|
H|-6-5~--6-6-5~-----------------------|
G|-5-5~--5-5-5~-----------------------|
D|------------------------------------|
A|------------------------------------|
E|------------------------------------|


Piano:

e|--12~-15-13-12-----15-13-12---------|
H|----------------------------15~-----|
G|---------------14-------------------|
D|------------------------------------|
A|------------------------------------|
E|------------------------------------|

Guitar Riff 1:

e|------------------------------------|
H|-6-5~--6-6-5~-----------------------|
G|-5-5~--5-5-5~-----------------------|
D|------------------------------------|
A|------------------------------------|
E|------------------------------------|


First Verse:

C                                 F
Seit Jahren schon leb ich mit Dir
                         G
und ich danke Gott dafür,
                          C
das er mir Dich gegeben hat.

Guitar Riff 1:

e|------------------------------------|
H|-6-5~--6-6-5~-----------------------|
G|-5-5~--5-5-5~-----------------------|
D|------------------------------------|
A|------------------------------------|
E|------------------------------------|
                              F                   
Als Erinnerung an unser Leben
                               G 
möcht ich Dir heut etwas geben .
                                C
Ein Geschenk für alle Ewigkeit.

Guitar Riff 1:

e|------------------------------------|
H|-6-5~--6-6-5~-----------------------|
G|-5-5~--5-5-5~-----------------------|
D|------------------------------------|
A|------------------------------------|
E|------------------------------------|



      C                       F  
Einen Stern der Deinen Namen trägt ,
                   G
hoch am Himmelszelt  
                               C   
den schenk ich Dir heut Nacht.

Guitar Riff 1:

e|------------------------------------|
H|-6-5~--6-6-5~-----------------------|
G|-5-5~--5-5-5~-----------------------|
D|------------------------------------|
A|------------------------------------|
E|------------------------------------|

                                 F
Einen Stern der Deinen Namen trägt,
                     G
alle Zeiten überlebt
                           C
und über unsere Liebe wacht .


Guitar Riff 1:

e|------------------------------------|
H|-6-5~--6-6-5~-----------------------|
G|-5-5~--5-5-5~-----------------------|
D|------------------------------------|
A|------------------------------------|
E|------------------------------------|



Play this second Verse like the first

Second Verse:

Irgendwann ist es vorbei
und im Himmel wird platz für uns zwei.
Doch Dein Stern bleibt oben
für immer und ewig stehn.

Guitar Riff 1:

e|------------------------------------|
H|-6-5~--6-6-5~-----------------------|
G|-5-5~--5-5-5~-----------------------|
D|------------------------------------|
A|------------------------------------|
E|------------------------------------|


Und auch noch in tausend Jahren
wird er Deinen Namen tragen
Und immer noch der schönste von allen sein

Guitar Riff 1:

e|------------------------------------|
H|-6-5~--6-6-5~-----------------------|
G|-5-5~--5-5-5~-----------------------|
D|------------------------------------|
A|------------------------------------|
E|------------------------------------|


      C                       F  
Einen Stern der Deinen Namen trägt ,
                   G
hoch am Himmelszelt  
                               C   
den schenk ich Dir heut Nacht.


Guitar Riff 1:

e|------------------------------------|
H|-6-5~--6-6-5~-----------------------|
G|-5-5~--5-5-5~-----------------------|
D|------------------------------------|
A|------------------------------------|
E|------------------------------------|

                                 F
Einen Stern der Deinen Namen trägt,
                     G
alle Zeiten überlebt
                           C
und über unsere Liebe wacht .


Guitar Riff 1:

e|------------------------------------|
H|-6-5~--6-6-5~-----------------------|
G|-5-5~--5-5-5~-----------------------|
D|------------------------------------|
A|------------------------------------|
E|------------------------------------|

A little Rest then

e|-12~-15-13-12-----------------------|
H|------------------------------------|
G|--------------14--------------------|
D|------------------------------------|
A|------------------------------------|
E|------------------------------------|


D                            G
Einen Stern der Deinen Namen trägt ,
                   A
hoch am Himmelszelt  
                               D   
den schenk ich Dir heut Nacht.

Guitar Riff 2:

e|------------------------------------|
H|-8-7~--8-8-7~-----------------------|
G|-7-7~--7-7-7~-----------------------|
D|------------------------------------|
A|------------------------------------|
E|------------------------------------|


D                                 G
Einen Stern der Deinen Namen trägt,
                     A
alle Zeiten überlebt
                           D
und über unsere Liebe wacht .

Guitar Riff 2:

e|------------------------------------|
H|-8-7~--8-8-7~-----------------------|
G|-7-7~--7-7-7~-----------------------|
D|------------------------------------|
A|------------------------------------|
E|------------------------------------|
Добавлено: 25.10.2013
Другие материалы по этой песне:
  • Аккорды и текст

Страница создана 25.10.2013
http://primanota.ru/dj-oetzi/einen-ster-der-deinen-namen-traegt-chords.htm
Привет, Гость.
Предлагаем пройти революционный курс по гитаре.
Подарок от PrimaNota.Ru, забирай!