PrimaNota.ru - самый крупный в мире бесплатный архив песенных текстов, аккордов, табулатур и нот


DJ Jazzy Jeff & The Fresh Prince - The Things That U Do - текст песни, бас-таба, видео

Регистрация Запомнить меня
Войти через:  Facebook Google Twitter Vk Yandex Mail.ru

DJ Jazzy Jeff & The Fresh Prince - The Things That U Do - текст песни, бас-таба, видео

Печатать
Просмотров: 68
DJ Jazzy Jeff & The Fresh Prince: The Things That U Do
Synth Intro
Rest on Verse 1

Chorus 1       
|-------------------------------------|
|-------------------------------------|
|-------------------------------------|
|-0~-0--0~-0-0h5~---7~-7--7~-7--0-7-6-|

|-------------------------------------|
|-------------------------------------|
|---------------------------------5h7-|
|-5~-5--5~-5-0h5~---7~-7--7~-7--7-----|

|-------------------------------------|
|-------------------------------------|
|-------------------------------------|
|-0~-0--0~-0-0h5~---7~-7--7~-7--0-7-6-|

|-------------------------------------|
|-------------------------------------|
|-----------------------------2--2/---|
|-5~-5--5~-5-0h5\---2~-2--2~----------|

Verse 2
|-------------------------------------|
|-------------------------------------|
|-------------------------------------|
|-0~-0--0~-0-0h5~---7~-7--7~-7--0-7-6-|

|-------------------------------------|
|-------------------------------------|
|---------------------------------5h7-|
|-5~-5--5~-5-0h5~---7~-7--7~-7--7-----|

|-------------------------------------|
|-------------------------------------|
|-------------------------------------|
|-0~-0--0~-0-0h5~---7~-7--7~-7--0-7-6-|

|-------------------------------------|
|-------------------------------------|
|--------------------------575--------|
|-5~-5--5~-5-0h5~---7~-7--7----7-5~-3-|

|-------------------------------------|
|-------------------------------------|
|-------------------------------------|
|-0~-0--0~-0-0h5~---7~-7--7~-7--0-7-6-|

|-------------------------------------|
|-----------------------------------4-|
|---------------------------------5---|
|-5~-5--5~-5-0h5~---7~-7--7~-7--7-----|

|-------------------------------------|
|-------------------------------------|
|-------------------------------------|
|-0~-0--0~-0-0h5~---7~-7--7~-7--0-7-6-|

|-------------------------------------|
|-------------------------------------|
|-----------------------------2-2-2-2-|
|-5~-5--5~-5-0h5\---2~-2--2~----------|

Chorus 2 
|-------------------------------------|
|-------------------------------------|
|-------------------------------------|
|-0~-0--0~-0-0h5~---7~-7--7~-7--0-7-6-|

|-------------------------------------|
|-------------------------------------|
|--------------------------------5~7~-|
|-5~-5--5~-5-0h5~---7~-7--7~-7-7------|

|-------------------------------------|
|-------------------------------------|
|-------------------------------------|
|-0~-0--0~-0-0h5~---7~-7--7~-7--0-7-6-|

|-------------------------------------|
|-------------------------------------|
|----------------------------2-2--5-7-|
|-5~-5--5~-5-0h5\---2~-2--2~----------|

Verse 3
|-------------------------------------|
|-------------------------------------|
|-------------------------------------|
|-0~-0--0~-0-0h5~---7~-7--7~-7--0-7-6-|

|-------------------------------------|
|-------------------------------------|
|---------------------------------5h7-|
|-5~-5--5~-5-0h5~---7~-7--7~-7--7-----|

|-------------------------------------|
|-------------------------------------|
|-------------------------------------|
|-0~-0--0~-0-0h5~---7~-7--7~-7--0-7-6-|

|-------------------------------------|
|-------------------------------------|
|--------------------------575--------|
|-5~-5--5~-5-0h5~---7~-7--7----7-5~-3-|

|-------------------------------------|
|-------------------------------------|
|-------------------------------------|
|-0~-0--0~-0-0h5~---7~-7--7~-7--0-7-6-|

|-------------------------------------|
|-------------------------------------|
|---------------------------------5h7-|
|-5~-5--5~-5-0h5~---7~-7--7~-7--7-----|

|-------------------------------------|
|-------------------------------------|
|-------------------------------------|
|-0~-0--0~-0-0h5~---7~-7--7~-7--0-7-6-|

|-------------------------------------|
|---------------5-7~--7b-5------------|
|-----------5-7------------7-5--------|
|-5~-5--5h7--------------------7-5-3~-|

Chorus 3
|-------------------------------------|
|-------------------------------------|
|-------------------------------------|
|-0~-0--0~-0-0h5~---7~-7--7~-7--0-7-6-|

|-------------------------------------|
|-------------------------------------|
|-------------------------------575---|
|-5~-5--5~-5-0h5~---7~-7--7----7---75-|

|-------------------------------------|
|-------------------------------------|
|-------------------------------------|
|-0~-0--0~-0-0h5~---7~-7--7~-7--0-7-6-|

|-------------------------------------|
|-------------------------------------|
|----------------------5-7-7---75-----|
|-5~-5--5~-5--0h5\---2-----------753~-|

Bridge 1
|--------------------------------------|
|--------------------------------------|
|-------------2~---------------5~------|
|-0~-0--0~--0----3~--0~-0--0~-----7~-3-|

|--------------------------------------|
|--------------------------------------|
|-------------2~---------------5~------|
|-0~-0--0~--0----3~--0~-0--0~-----7~---|

|--------------------------------------|
|--------------------------------------|
|-------------2~-------------------2~--|
|-0~-0--0~--0----3~--0~-0--0~---3~-----|

|----------------------------------------|
|-----------------------9b-7-5-----------|
|----------------2-------------7--575----|
|-0~-0--0~-0--0~----------------------75-|

Chorus 4
|-------------------------------------|
|-------------------------------------|
|-------------------------------------|
|-0~-0--0~-0-0h5~---7~-7--7~-7--0-7-6-|

|-------------------------------------|
|-------------------------------------|
|---------------------------------5h7-|
|-5~-5--5~-5-0h5~---7~-7--7~-7--7-----|

|-------------------------------------|
|-------------------------------------|
|-------------------------------------|
|-0~-0--0~-0-0h5~---7~-7--7~-7--0-7-6-|

|-------------------------------------|
|-------------------------------------|
|----------------------------2-2--575-|
|-5~-5--5~-5-0h5\---2~-2--2~----------|

Bridge 2
|--------------------------------------|
|--------------------------------------|
|-------------2~-------------------2~--|
|-0~-0--0~--0----3~--0~-0--0~-0-3~-----|

|--------------------------------------|
|--------------------------------------|
|-------------2~-------------5---------|
|-0~-0--0~--0----3~--0~-0--0---7-3~--7-|

|-------------------|   |------------------|
|-------------------|   |------------------|
|-------------2~----|3x |------------------|
|-0~-0--0~--0----3~-|   |-0~-0--0~-5~3~5-3~|

|-------------------|   |-------------------|
|-------------------|   |-------------------|
|-------------2~----|3x |-----------5-7-5---|
|-0~-0--0~--0----3~-|   |-0~-0--0-0-------7-|

|-------------------|   |--------------------------|
|-------------------|   |-------5-7-7b-5-----------|
|-------------2~----|2x |---5~7----------7-5-------|
|-0~-0--0~--0----3~-|   |-7~-----------------7-5-3-|

Chorus 5 (Fade Out)
|-------------------------------------|
|-------------------------------------|
|-------------------------------------|
|-0~-0--0~-0-0h5~---7~-7--7~-7--0-7-6-|

|-------------------------------------|
|-------------------------------------|
|---------------------------------5h7-|
|-5~-5--5~-5-0h5~---7~-7--7~-7--7-----|

|-------------------------------------|
|-------------------------------------|
|-------------------------------------|
|-0~-0--0~-0-0h5~---7~-7--7~-7--0-7-6-|

|-------------------------------------|
|-------------------------------------|
|-----------------------------2-2-2-2-|
|-5~-5--5~-5-0h5\---2~-2--2-2---------|

|-------------------------------------|
|-------------------------------------|
|-------------------------------------|
|-0~-0--0~-0-0h5~---7~-7--7~-7--0-7-6-|

|-------------------------------------|
|-------------------------------------|
|---------------------------------5h7-|
|-5~-5--5~-5-0h5~---7~-7--7~-7--7-----|

Добавлено: 24.05.2016
Вам также может быть интересно:
Другие материалы по этой песне:
  • Аккорды и текст

Страница создана 27.04.2012
http://primanota.ru/dj-jazzy-jeff-and-the-fresh-prince/the-things-that-u-do-chords.htm
Привет, Гость.
Предлагаем пройти революционный курс по гитаре.
Подарок от PrimaNota.Ru, забирай!