PrimaNota.ru - самый крупный в мире бесплатный архив песенных текстов, аккордов, табулатур и нот


Dizzy Mizz Lizzy - Two Of You - текст песни, таба, видео

Регистрация Запомнить меня
Войти через:  Facebook Google Twitter Vk Yandex Mail.ru

Dizzy Mizz Lizzy - Two Of You - текст песни, таба, видео

Печатать
Просмотров: 124
    ____________________
   / Dizzy Mizz Lizzy  /  I think this song is about this guy having a hard time
  / Two of You        /  with his girlfriend, who has some schitzophrenic
 / Rotator           /  tendencies or so. This song is really one of many of
/___________________/   Tim C's about problematic love.

************************************************************************************
* Follow this link for a Guitar Pro version of this tab                            *
*  - including both the guitar tracks, the bass and lots of details:               *
* /tabs/d/dizzy_mizz_lizzy/two_of_you_guitar_pro.htm *
************************************************************************************


Tuning: Drop-C (C G C F A D)

 Intro:
|---0--0--0----0--0--0---0---0---|---0--0--0----0--0---0-----0-----0-|
|-2/3--3--3--2/3--3--3/--7\--0h1-|-2/3--3--3--2/3--3/--9h10--9h10--9-|
|--------------------------------|-----------------------------------|
|--------------------------------|-----------------------------------|
|--------------------------------|-----------------------------------|
|--------------------------------|-----------------------------------|

|---0--0--0----0--0--0---0---0---|---0--0--0----0--0---0-----0-----0---|
|-2/3--3--3--2/3--3--3/--7\--0h1-|-2/3--3--3--2/3--3/--9h10--9h10--12\-|
|--------------------------------|-------------------------------------|
|--------------------------------|-------------------------------------|
|--------------------------------|-------------------------------------|
|--------------------------------|-------------------------------------|

|---0--0--0----0--0--0----0----0-|---0--0--0----0--0---0-----0-----0-|
|-2/3--3--3--2/3--3--7h8--7h8--7-|-2/3--3--3--2/3--3/--9h10--9h10--0-|
|--------------------------------|-----------------------------------|
|--------------------------------|-----------------------------------|
|--------------------------------|-----------------------------------|
|--------------------------------|-----------------------------------|

|---0--0--0----0--0---0-----0-----0-----|
|-2/3--3--3--2/3--3/--9h10--9h10--10h11-|
|---------------------------------------|
|---------------------------------------|
|---------------------------------------|
|---------------------------------------|

|--0-----0-----0-----0-----0-----0-----0--------|
|-10h11-11h12-11h12-12h13-12h13-13h14-13h14-15\-|
|-----------------------------------------------|
|-----------------------------------------------|
|-----------------------------------------------|
|-----------------------------------------------|




 Main Riff:
            PM       PM----|          PM       PM------------|
|-----------------------------|---------------------------------|
|-----------------------------|---------------------------------|
|-----------------------------|---------------------------------|
|-0---10h12----10h12----------|-10h12----10h12------------------|
|-0---10h12----10h12----------|-10h12----10h12------------------|
|-0---10h12-0--10h12-0--0--0--|-10h12-0--10h12-0--0--5-5---5-5--|


            PM       PM-----|          PM       PM------------|
|------------------------------|---------------------------------|
|------------------------------|---------------------------------|
|------------------------------|---------------------------------|
|-0---10h12----10h12----12-----|-10h12----10h12------------------|
|-0---10h12----10h12----12-----|-10h12----10h12------------------|
|-0---10h12-0--10h12-0--12--0--|-10h12-0--10h12-0--3--5-6---5-2--|


            PM       PM----|          PM       PM------------|
|-----------------------------|---------------------------------|
|-----------------------------|---------------------------------|
|-----------------------------|---------------------------------|
|-0---10h12----10h12----------|-10h12----10h12------------------|
|-0---10h12----10h12----------|-10h12----10h12------------------|
|-0---10h12-0--10h12-0--0--0--|-10h12-0--10h12-0--0--5-5---5-5--|


                PM------|               PM------|      PM------|     PM------|
|-------------------------|-----------------------|----------------------------|
|-------------------------|-----------------------|----------------------------|
|-------------------------|-----------------------|----------------------------|
|-3------[10]-------------|-0---------------------|-3-------------0------------|
|-3-----------------------|-0---------------------|-3-------------0------------|
|-3-------------7-7---7-7-|-0-----[4]---5-5---5-5-|-3--7-7---7-7\-0--5-5---5-5-|


                PM------|               PM------|      PM------|
|-------------------------|-----------------------|---------------------------|
|-------------------------|-----------------------|---------------------------|
|-------------------------|-----------------------|---------------------------|
|-3-----------------------|-0---------------------|-3-------------0-----------|
|-3-----------------------|-0---------------------|-3-------------0-----------|
|-3------[10]---7-7---7-7-|-0-----[4]---5-5---5-5-|-3--7-7---7-7\-0----16\----|

*The notes in [brackets] are tapped harmonics.
 What you're to do in the first case e.g. is to hold the 3rd,
 and then slighty touch the string over the 10th fret.




 Interlude:
    C
    PM--------------------|  4x
||---------------------------||
||o-------------------------o||
||---------------------------||
||---------------------------||
||o-9--9--9--9--9--9--9--9--o||
||--7--7--7--7--7--7--7--7---||




 Verse:
    C                         Eb
    PM--------------------|   PM---------------------------|
||--------------------------|---------------------------------|
||o-------------------------|---------------------------------|
||--------------------------|---------------------------------|
||--------------------------|---------------------------------|
||o-9--9--9--9--9--9--9--9--|-12--12--12--12--12--12--12--12--|
||--7--7--7--7--7--7--7--7--|-10--10--10--10--10--10--10--10--|


  Adim                      Fm/ab
  PM--------------------|   PM---------------------------|
|-------------------------|---------------------------------|
|-------------------------|---------------------------------|
|-------------------------|---------------------------------|
|-------------------------|---------------------------------|
|-8--8--8--8--8--8--8--8--|-10--10--10--10--10--10--10--10--|
|-9--9--9--9--9--9--9--9--|--8---8---8---8---8---8---8---8--|


                           1.                      2.
  C/g                       C
  PM----------------|          PM-------------|               PM------------|
|-------------------------|----------------------||---------------------------|
|-------------------------|---------------------o||---------------------------|
|-------------------------|----------------------||---------------------------|
|-------------------------|----------------------||-0---10h12-----------------|
|-9--9--9--9--9--9--9--0--|----9--9--9--9--9--9-o||-0---10h12-----------------|
|-7--7--7--7--7--7--7--0--|----7--7--7--7--7--7--||-0---10h12-0--0--3-3---3-3-|




 Chorus:
    F5/7                          Ab
||------------------------------|-----------------------------|
||o-----------------------------|-----------------------------|
||-------10--------10-----------|------10--------10-----------|
||--12---10---12---10---12--12--|-12---12---12---12---12-12---|
||o-10--------10--------10--10--|-13--------13--------13-13---|
||------------------------------|-----------------------------|
  " Look at   me caught in your   my  -ste -ry,  I'm  gi-ving
    Now  my   head is   tur-ning  and  my   eyes are  bur-ning


  Bb        Bb/ab                Gm
|------------------------------|---------------------------||
|------------------------------|--------------------------o||
|------12---------12-----------|-------12------------------||
|-14---14---14----14---14--14--|-14-----x----15~----14-----||
|-15--------13---------13--13--|-12----12----12~----12----o||
|------------------------------|---------------------------||
  twice the fee  -ling and I'm   not   re   -cei   -ving
  It's the truth  I'm lear-ning, What  am    I      to

  Fm                      G+5
|-----------------------|---------------------|
|-----------------------|---------------------|
|--7------7-------------|-10------------------|
|--8-----------8--------|----11---------------|
|-10--------------10/12-|-------12------------|
|-----------------------|---------------------|
  do?                     ...With two of you "




 Interlude x0,5:
just play two bars then


 Verse:
similar to previous


 Chorus:
similar to previous


 Main Riff:
similar to previous




 Breakdown (intro):
|---0--0--0----0--0--0---0---0--|---0--0--0----0--0---0-----0-----0--|
|-2/3--3--3--2/3--3--3/--7\--0--|-2/3--3--3--2/3--3/--9h10--9h10--9--|
|-------------------------------|------------------------------------|
|-------------------------------|------------------------------------|
|-------------------------------|------------------------------------|
|-------------------------------|------------------------------------|


|---0--0--0----0--0--0----0-----0----|--0-----0-----0-----0-----0--x/-x\-x/-|
|-2/3--3--3--2/3--3--9h10-9h10-10h11-|-10h11-11h12-11h12-12h13-14/-x/-x\-x/-|
|------------------------------------|--------------------------------------|
|------------------------------------|--------------------------------------|
|------------------------------------|--------------------------------------|
|------------------------------------|--------------------------------------|




 Outro Verse:
    C                        Eb
||-------------------------|-------------------------------|
||o------------------------|-------------------------------|
||-------------------------|-------------------------------|
||-------------------------|-------------------------------|
||o-9----9---9-9--9--9--9--|-12----12---12-12--12--12--12--|
||--7----7---7-7--7--7--7--|-10----10---10-10--10--10--10--|


  Adim                            Fm/ab
|-------------------------------|-------------------------------|
|-------------------------------|-------------------------------|
|-------------------------------|-------------------------------|
|-------------------------------|-------------------------------|
|-14----14---14-14--14--14--14--|-10----10---10-10--10--10--10--|
|-15----15---15-15--15--15--15--|--8-----8----8--8---8---8---8--|


 1.
  C/g                            C
|------------------------------|-------------------------------||
|---------15----15-------------|---------15----15-------------o||
|---------17b19-17b19----------|---------17b19-17b19-----------||
|-7----7-----------------7-----|-7----7-----------------7------||
|-9----9-----------------9-----|-9----9-----------------9-----o||
|-7----7--------------0--7--0--|-7----7--------------0--7--0---||


 2.
  C/g                            C
|------------------------------|------------------------------||
|---------19----19-------------|---------19----19-------------||
|---------21b23-19b23----------|---------21b23-21b23----------||
|-7----7-----------------7-----|-7----7-----------------7-----||
|-9----9-----------------9-----|-9----9-----------------9-----||
|-7----7--------------0--7--0--|-7----7--------------0--7--0--||



  C                              Eb
|------------------------------|---------------------------------|
|---------19----19-------------|-----------20----20--------------|
|---------21b23-19b23----------|-----------22b24-22b24-----------|
|-7----7-----------------7-----|-10----10-----------------10-----|
|-9----9-----------------9-----|-12----12-----------------12-----|
|-7----7--------------0--7--0--|-10----10--------------0--10--0--|


  Adim                              Fm/ab
|---------------------------------|---------------------------------|
|-----------20----20--------------|-----------20----20--------------|
|-----------22b24-22b24-----------|-----------22b24-22b24-----------|
|---------------------------------|--8-----8------------------8-----|
|-14----14-----------------14-----|-10----10-----------------10-----|
|-15----15--------------0--15--0--|--8-----8--------------0---8--0--|


  C/g                            C
|------------------------------|------------------------------|
|---------20----20-------------|---------20----20-------------|
|---------22b24-22b24----------|---------22b24-22b24----------|
|-7----7-----------------7-----|-7----7-----------------7-----|
|-9----9-----------------9-----|-9----9-----------------9-----|
|-7----7--------------0--7--0--|-7----7--------------0--7--0--|


...from here it's really the same pattern and chords as the
round here, but basically it's just a lot of random noise!
End up in this weird pattern:


    |-3-| |-3-|  |-3-| |-3-|
||----------------------------||
||o-------3p0----------3p0---o||
||--2------------2------------||
||------2-----2------2-----2--||
||o--------------------------o||
||----------------------------||


- 9th /February /08
Just mail me at Maitinin@gmail.com with questions, comments and corrections!
Добавлено: 23.05.2012
Другие материалы по этой песне:

Страница создана 04.03.2012
http://primanota.ru/dizzy-mizz-lizzy/two-of-you-chords.htm
Привет, Гость.
Предлагаем пройти революционный курс по гитаре.
Подарок от PrimaNota.Ru, забирай!