PrimaNota.ru - самый крупный в мире бесплатный архив песенных текстов, аккордов, табулатур и нот


Dizzy Mizz Lizzy - Too Close To Stab - текст песни, таба, видео

Регистрация Запомнить меня
Войти через:  Facebook Google Twitter Vk Yandex Mail.ru

Dizzy Mizz Lizzy - Too Close To Stab - текст песни, таба, видео

Печатать
Просмотров: 143
Уроки эстрадного вокала в Санкт-Петербурге
    _____________________
   / Too Close to Stab  /  Jeg har egentlig altid godt kunne tænke mig at
  / Dizzy Mizz Lizzy   /  kunne spille de her akkorder, så da jeg her fik et
 / Dizzy Mizz Lizzy   /  tilbagevendende Dizzy-flip og nu er i stand til at
/____________________/  lytte dem af, måtte jeg også lige smide dem herind.

Tuning: Hel-tone ned (D G C F A D)


  Dm7         A7#5              Csus4/bb
  PM PM       PM    PM                      PM    PM
|-----------------------------|-----------------------------|
|-------8~--8---8-x---8~--8-8-|-------8~--8---8-x---8~--8-8-|
|-------7~--7---8-x---8~--8-8-|-------7~--7---7-x---7~--7-7-|
|-------5~--5---7-x---7~--7-7-|-------7~--7---7-x---7~--7-7-|
|-----------------x-----------|-----------------x-----------|
|-0--0--------7-----7---------|-8--8--------8-----8---------|


  Dm7         A7#5              Csus4/bb
  PM PM       PM    PM                      PM    PM
|-----------------------------|-----------------------------|
|-------8~--8---8-x---8~--8-8-|-------8~--8---8-x---8~--8-8-|
|-------7~--7---8-x---8~--8-8-|-------7~--7---7-x---7~--7-7-|
|-------5~--5---7-x---7~--7-7-|-------7~--7---7-x---7~--7-7-|
|-----------------x-----------|-----------------x-----------|
|-0--0--------7-----7---------|-8--8--------8-----8---------|


  Dsus4/C                               G
                  PM     PM
|-------------------------------------|----------------------------------------|
|---------10~--10---10-x----10--10-10-|-x\---10--10-10-10-10-10-10-10-10-10-10-|
|----------9~---9----9-x-----9---9--9-|-x\----9---9--9--9--9--9--9--9--9--9--9-|
|----------9~---9----9-x-----9---9--9-|-x\----7---7--7--7--7--7--7--7--7--7--7-|
|----------------------x--------------|----0-----------------------------------|
|-8s10-10---------10-----10-----------|----------------------------------------|


- 27 /January /08
Just mail me at Maitinin@gmail.com with questions, comments and corrections!
Добавлено: 24.06.2012
Другие материалы по этой песне:
  • Аккорды и текст

Страница создана 24.06.2012
http://primanota.ru/dizzy-mizz-lizzy/too-close-to-stab-chords.htm
Привет, Гость.
Предлагаем пройти революционный курс по гитаре.
Подарок от PrimaNota.Ru, забирай!