PrimaNota.ru - самый крупный в мире бесплатный архив песенных текстов, аккордов, табулатур и нот


Dizzy Mizz Lizzy - Rotator - текст песни, таба, видео

Регистрация Запомнить меня
Войти через:  Facebook Google Twitter Vk Yandex Mail.ru

Dizzy Mizz Lizzy - Rotator - текст песни, таба, видео

Печатать
Просмотров: 139
Intro:

E||----------------------------------|----------------------------------|
B||----------------------------------|----------------------------------|
G||----------------------------------|----------------------------------|
D||----------------------------------|----------------------------------|
A||--------5---7/9--8P7----7---------|--------5---7/9--8P7----7---------|
E||------7---7----------10----10-----|------6---6----------10----10-----|

E||----------------------------------|----------------------------------|
B||----------------------------------|----------------------------------|
G||----------------------------------|----------------------------------|
D||----------------------------------|----------------------------------|
A||--------5---7/9--8P7----7---------|-----7-5---5-4--------------------|
E||------5---5----------10----10-----|---5-----5------------------------|

E||----------------------------------|----------------------------------|
B||----------------------------------|----------------------------------|
G||----------------------------------|----------------------------------|
D||----------------------------------|----------------------------------|
A||--------5---7/9--8P7----7---------|--------5---7/9--8P7----7---------|
E||------7---7----------10----10-----|------6---6----------10----10-----|

E||----------------------------------|----------------------------------|
B||----------------------------------|----------------------------------|
G||----------------------------------|----------------------------------|
D||----------------------------------|----------------------------------|
A||--------5---7/9--8P7----7---------|-----7-5---5-4--------------------|
E||------5---5----------10----10-----|---5-----5------------------------|

E||----------------------------------|
B||----------------------------------|
G||----------------------------------|
D||----------------------------------|
A||--------5---7/9--8P7----7---------|
E||------7---7----------10----10--7--|


Verse:

E||----------------------------------|----------------------------------|
B||----------------------------------|--------------3p2-----------------|
G||----------------------------------|------------------4---6--4--------|
D||-----7--9-9-------7--12-12--------|-----7--9-9-----------------------|
A||--9--5--7-7----9--5--10-10--------|--9--5--7-7-----------5--5--------|
E||--7------------7------------------|--7-------------------3--3--------|

E||----------------------------------|
B||----------------------------------|
G||--4-4--6--------------------------|
D||----------7-----------7--7--7-----|
A||--5-5--5--5-----------5--5--5-----|
E||--3-3--3--3-----------3--3--3-----|

E||----------------------------------|----------------------------------|
B||----------------------------------|--------------3p2-----------------|
G||----------------------------------|------------------4---6--4--------|
D||-----7--9-9-------7--12-12--------|-----7--9-9-----------------------|
A||--9--5--7-7----9--5--10-10--------|--9--5--7-7-----------5--5--------|
E||--7------------7------------------|--7-------------------3--3--------|

E||----------------------------------|----------------------------------|
B||----------------------------------|--3--2----2--2--------------------|
G||--4-4--6--------------------------|--2--2----2--2-----4--3----3-3-3--|
D||----------7-----------7--7--7-----|--2--2----2--2-----4--4----4-4-4--|
A||--5-5--5--5-----------5--5--5-----|-------------------4--4----4-4-4--|
E||--3-3--3--3-----------3--3--3-----|-------------------2--2----2-2-2--|


Chorus:

E||----------------------------------|----------------------------------|
B||----------------------------------|----------------------------------|
G||-----10--10/11--------------------|-----10--10/11--------------------|
D||--9--9---9--9-----5--5--4---------|--9--9---9--9-----5--5--5--4------|
A||--9--9---9--9-----5--4-------5-4--|--9--9---9--9-----5--4------------|
E||--7--7---7--7-----3--3--3--3-3-3--|--7--7---7--7-----3--3--3--3------|

E||----------------------------------|----------------------------------|
B||----------------------------------|----------------------------------|
G||-----10--10/11--------------------|----------------------------------|
D||--9--9---9--9-----5--5--4---------|--6---6-6----8---8-8--------------|
A||--9--9---9--9-----5--4----4-------|--7---7-7----9---9-9--------------|
E||--7--7---7--7-----3--3--3-3-------|--4---4-4----6---6-6--------------|

E||----------------------------------|
B||----------------------------------|
G||----------------------------------|
D||----------------------------------|
A||--------5---7/9--8P7----7---------|
E||------7---7----------10----10--7--|


Verse 2:

E||----------------------------------|----------------------------------|
B||----------------------------------|--------------3p2-----------------|
G||----------------------------------|------------------4---6--4--------|
D||-----7--9-9-------7--12-12--------|-----7--9-9-----------------------|
A||--9--5--7-7----9--5--10-10--------|--9--5--7-7-----------5--5--------|
E||--7------------7------------------|--7-------------------3--3--------|

E||----------------------------------|
B||----------------------------------|
G||--4-4--6--------------------------|
D||----------7-----------7--7--7-----|
A||--5-5--5--5-----------5--5--5-----|
E||--3-3--3--3-----------3--3--3-----|

E||----------------------------------|----------------------------------|
B||----------------------------------|--------------3p2-----------------|
G||----------------------------------|------------------4---6--4--------|
D||-----7--9-9-------7--12-12--------|-----7--9-9-----------------------|
A||--9--5--7-7----9--5--10-10--------|--9--5--7-7-----------5--5--------|
E||--7------------7------------------|--7-------------------3--3--------|

E||----------------------------------|----------------------------------|
B||----------------------------------|--3--2----2--2--------------------|
G||--4-4--6--------------------------|--2--2----2--2-----4--3----3-3-3--|
D||----------7-----------7--7--7-----|--2--2----2--2-----4--4----4-4-4--|
A||--5-5--5--5-----------5--5--5-----|-------------------4--4----4-4-4--|
E||--3-3--3--3-----------3--3--3-----|-------------------2--2----2-2-2--|

Chorus 2:

E||----------------------------------|----------------------------------|
B||----------------------------------|----------------------------------|
G||-----10--10/11--------------------|-----10--10/11--------------------|
D||--9--9---9--9-----5--5--4---------|--9--9---9--9-----5--5--5--4------|
A||--9--9---9--9-----5--4-------5-4--|--9--9---9--9-----5--4------------|
E||--7--7---7--7-----3--3--3--3-3-3--|--7--7---7--7-----3--3--3--3------|

E||----------------------------------|----------------------------------|
B||----------------------------------|----------------------------------|
G||-----10--10/11--------------------|----------------------------------|
D||--9--9---9--9-----5--5--4---------|--6---6-6----8---8-8--------------|
A||--9--9---9--9-----5--4----4-------|--7---7-7----9---9-9--------------|
E||--7--7---7--7-----3--3--3-3-------|--4---4-4----6---6-6--------------|

Intro Again:

E||----------------------------------|----------------------------------|
B||----------------------------------|----------------------------------|
G||----------------------------------|----------------------------------|
D||----------------------------------|----------------------------------|
A||--------5---7/9--8P7----7---------|--------5---7/9--8P7----7---------|
E||------7---7----------10----10-----|------6---6----------10----10-----|

E||----------------------------------|----------------------------------|
B||----------------------------------|----------------------------------|
G||----------------------------------|----------------------------------|
D||----------------------------------|----------------------------------|
A||--------5---7/9--8P7----7---------|-----7-5---5-4--------------------|
E||------5---5----------10----10-----|---5-----5------------------------|

E||----------------------------------|----------------------------------|
B||----------------------------------|----------------------------------|
G||----------------------------------|----------------------------------|
D||----------------------------------|----------------------------------|
A||--------5---7/9--8P7----7---------|--------5---7/9--8P7----7---------|
E||------7---7----------10----10-----|------6---6----------10----10-----|

E||----------------------------------|----------------------------------|
B||----------------------------------|----------------------------------|
G||----------------------------------|----------------------------------|
D||----------------------------------|----------------------------------|
A||--------5---7/9--8P7----7---------|-----7-5---5-4--------------------|
E||------5---5----------10----10-----|---5-----5------------------------|

E||----------------------------------|
B||----------------------------------|
G||----------------------------------|
D||----------------------------------|
A||--------5---7/9--8P7----7---------|
E||------7---7----------10----10--7--|

Solo:

E||----------------------------------|----------------------------------|
B||----------------------------------|----------------------------------|
G||--------14---------14----------14-|--------14-------12----------12---|
D||-----12----12---12----11----11----|-----11-------12----12----11------|
A||--10---------10----------10-------|--10-------12----------12---------|
E||----------------------------------|----------------------------------|


E||----------------------------------|----------------------------------|
B||----------------------------------|-----------15-14------------------|
G||--------15^------------14-------14|--------14------------------------|
D||-----16----16-------12-------12---|-----12---------------------------|
A||--13---------13--14-------10------|--12------------------------------|
E||----------------------------------|----------------------------------|

E||----------------------------------|----------------------------------|
B||----------------------------------|----------------------------------|
G||-------12---------12---------12---|------12--------10---------12-----|
D||----10----10---10-----9----9------|----9--------10----10----9--------|
A||--8----------8----------8---------|--8-------10----------10----------|
E||----------------------------------|----------------------------------|


E||----------------------------------|----------------------------------|
B||----------------------------------|-----------13-12------------------|
G||--------13^-------------12------12|--------12------------------------|
D||-----14----14--------10------10---|-----10---------------------------|
A||--11----------11--12-------8------|--10------------------------------|
E||----------------------------------|----------------------------------|

E||----------------------------------|
B||----------------------------------|
G||----------------------------------|
D||------7-----7---7-----------------|
A||----5-----5-----5-----------------|
E||--7-----3-------5-----------------|


Chorus 3:

E||----------------------------------|----------------------------------|
B||----------------------------------|----------------------------------|
G||-----10--10/11--------------------|-----10--10/11--------------------|
D||--9--9---9--9-----5--5--4---------|--9--9---9--9-----5--5--5--4------|
A||--9--9---9--9-----5--4-------5-4--|--9--9---9--9-----5--4------------|
E||--7--7---7--7-----3--3--3--3-3-3--|--7--7---7--7-----3--3--3--3------|

E||----------------------------------|----------------------------------|
B||----------------------------------|----------------------------------|
G||-----10--10/11--------------------|----------------------------------|
D||--9--9---9--9-----5--5--4---------|--6---6-6----8---8-8--------------|
A||--9--9---9--9-----5--4----4-------|--7---7-7----9---9-9--------------|
E||--7--7---7--7-----3--3--3-3-------|--4---4-4----6---6-6--------------|

Chorus 4:

E||----------------------------------|----------------------------------|
B||----------------------------------|----------------------------------|
G||-----10--10/11--------------------|-----10--10/11--------------------|
D||--9--9---9--9-----5--5--4---------|--9--9---9--9-----5--5--5--4------|
A||--9--9---9--9-----5--4-------5-4--|--9--9---9--9-----5--4------------|
E||--7--7---7--7-----3--3--3--3-3-3--|--7--7---7--7-----3--3--3--3------|

E||----------------------------------|----------------------------------|
B||----------------------------------|----------------------------------|
G||-----10--10/11--------------------|----------------------------------|
D||--9--9---9--9-----5--5--4---------|--6---6-6----8---8-8--------------|
A||--9--9---9--9-----5--4----4-------|--7---7-7----9---9-9--------------|
E||--7--7---7--7-----3--3--3-3-------|--4---4-4----6---6-6--------------|

Chorus 5:

E||----------------------------------|----------------------------------|
B||----------------------------------|----------------------------------|
G||-----10--10/11--------------------|-----10--10/11--------------------|
D||--9--9---9--9-----5--5--4---------|--9--9---9--9-----5--5--5--4------|
A||--9--9---9--9-----5--4-------5-4--|--9--9---9--9-----5--4------------|
E||--7--7---7--7-----3--3--3--3-3-3--|--7--7---7--7-----3--3--3--3------|

E||----------------------------------|----------------------------------|
B||----------------------------------|----------------------------------|
G||-----10--10/11--------------------|----------------------------------|
D||--9--9---9--9-----5--5--4---------|--6---6-6----8---8-8--------------|
A||--9--9---9--9-----5--4----4-------|--7---7-7----9---9-9--------------|
E||--7--7---7--7-----3--3--3-3-------|--4---4-4----6---6-6--------------|

Outro:

E||----------------------------------|----------------------------------|
B||----------------------------------|----------------------------------|
G||----------------------------------|----------------------------------|
D||----------------------------------|----------------------------------|
A||--------5---7/9--8P7----7---------|--------5---7/9--8P7----7---------|
E||------7---7----------10----10-----|------6---6----------10----10-----|

E||----------------------------------|----------------------------------|
B||----------------------------------|----------------------------------|
G||----------------------------------|----------------------------------|
D||----------------------------------|----------------------------------|
A||--------5---7/9--8P7----7---------|-----7-5---5-4--------------------|
E||------5---5----------10----10-----|---5-----5------------------------|

E||----------------------------------|----------------------------------|
B||----------------------------------|----------------------------------|
G||----------------------------------|----------------------------------|
D||----------------------------------|----------------------------------|
A||--------5---7/9--8P7----7---------|--------5---7/9--8P7----7---------|
E||------7---7----------10----10-----|------6---6----------10----10-----|

E||----------------------------------|----------------------------------|
B||----------------------------------|----------------------------------|
G||----------------------------------|----------------------------------|
D||----------------------------------|----------------------------------|
A||--------5---7/9--8P7----7---------|-----7-5---5-4--------------------|
E||------5---5----------10----10-----|---5-----5------------------------|

E||----------------------------------|
B||----------------------------------|
G||----------------------------------|
D||----------------------------------|
A||--------5---7/9--8P7----7---------|
E||------7---7----------10----10--7--|
Добавлено: 12.06.2012
Другие материалы по этой песне:

Страница создана 12.06.2012
http://primanota.ru/dizzy-mizz-lizzy/rotator-chords.htm
Привет, Гость.
Предлагаем пройти революционный курс по гитаре.
Подарок от PrimaNota.Ru, забирай!