PrimaNota.ru - самый крупный в мире бесплатный архив песенных текстов, аккордов, табулатур и нот


Dizzy Mizz Lizzy - Made To Believe - таба, видео

Регистрация Запомнить меня
Войти через:  Facebook Google Twitter Vk Yandex Mail.ru

Dizzy Mizz Lizzy - Made To Believe - таба, видео

Печатать
Просмотров: 53
-------------------------------------------------------------------------------
                             Made To Believe - Dizzy Mizz Lizzy
-------------------------------------------------------------------------------

Tuning:C G C F A D

Intro:
d|---------------------------------------------------------------------------|
A|---------------------------------------------------------------------------|
F|---------------------------------------------------------------------------|
C|----0------------------------------0---------------------------------------|
G|----0------------------------------0---------------------------------------|
C|----0------------------------------0---------------------------------------|

Verse:
d|--------------------------------------------------------------------------------------------------|
A|--------------------------------------------------------------------------------------------------|
F|-6-6-6---6-6-6-----------6-6-6---6-6-6---------6-6-6---6-6-6-----------6-6-6---6-6-6--------------|
C|--------------------------------------------------------------------------------------------------|
G|--------------------------------------------------------------------------------------------------|
C|-5-5-5-5-5-5-5-5-5-5-5-5-5-5-5-5-5-5-5-5-5-5-5-7-7-7-7-7-7-7-7-7-7-7-7-7-7-7-7-7-7-7-7-7-7-7-7-7--|

d|----------------------------------------------------------------------------------------------------|
A|----------------------------------------------------------------------------------------------------|
F|-6-6-6---6-6-6-----------6-6-6-4--6-6-6-4--------6-6-6---6-6-6-----------6-6-6---6-6-6--------------|
C|----------------------------------------------------------------------------------------------------|
G|----------------------------------------------------------------------------------------------------|
C|-5-5-5-5-5-5-5-5-5-5-5-5-5-5-5-5-5-5-5-5-5-5-5-5-7-7-7-7-7-7-7-7-7-7-7-7-7-7-7-7-7-7-7-7-7-7-7-7-7--|

Pre Chorus:
d|----------------------------------------------------------------------|
A|----------------------------------------------------------------------|
F|----------------------------------------------------------------------|
C|-14-14-14----14-14-15----------14-14-14-------14-14-15----------------|
G|----------------------------------------------------------------------|
C|-8--8--8-8-8-8--8--8-8-8-8-8-8-10-10-10-10-10-10-10-10-10-10-10-10-10-|

d|----------------------------------------------------------------------------------------------------------|
A|----------------------------------------------------------------------------------------------------------|
F|----------------------------------------------------------------------------------------------------------|
C|-14-14-14-15-15-15-17-17-17-14-14-14-15-15-15-------------------------------------------------------------|
G|-------------------------------------------------7-----------8-----------10----------7-----------8--------|
C|-12-12-12-12-12-12-12-12-12-12-12-12-12-12-12-12-12-12-12-12-12-12-12-12-12-12-12-12-12-12-12-12-12-12-12-|

d|----------------------------------------------------------------------|
A|----------------------------------------------------------------------|
F|----------------------------------------------------------------------|
C|-14-14-14----14-14-15----------14-14-14-------14-14-15----------------|
G|----------------------------------------------------------------------|
C|-8--8--8-8-8-8--8--8-8-8-8-8-8-10-10-10-10-10-10-10-10-10-10-10-10-10-|

d|---------------------------------------------------------------------|
A|---------------------------------------------------------------------|
F|-------------------------------------------------------------------5-|
C|-11-11-11-12-12-12-14-14-14-11-11-11-12-12-12------7---6---5---3---5-|
G|---------------------------------------------------7---6---5---3---3-|
C|-7-7-7-7-7-7-7-7-7-7-7-7-7-7-7-7-7-7-7-7-7-7-7-7-7-7---6---5---3-----|

Chorus:
  x3
d|------------------------------------------8-8--------|
A|--------8-10------8-----8-10--10-10----10-----10-8---|
F|-7---9-------7--9----9-----------------------------9-|
C|-----------------------------------------------------|
G|-----------------------------------------------------|
C|-----------------------------------------------------|

d|-----------------------------------------------|
A|-----------------------------------------------|
F|-----------------------------------------------|
C|-7-7-7-10--12-10--7--10-7--5--7-5--5-5-5-5-5-3-|
G|-5-5-5-8---10-8---5--8--5--3--5-3--5-5-5-5-5-3-|
C|-----------------------------------5-5-5-5-5-3-|

  x3
d|-------------------------------------------8-8--------|
A|--------8-10------8-----8-10--10-10-----10-----10-8---|
F|-7---9-------7--9----9------------------------------9-|
C|------------------------------------------------------|
G|------------------------------------------------------|
C|------------------------------------------------------|

d|---------------------------------|
A|---------------------------------|
F|---------------------------------|
C|-7-7-7-10--12-10--7--10-7--5-7---|
G|-5-5-5-8---10-8---5--8--5--3-5---|
C|---------------------------------|

Verse:
d|-------------------------------------------------------------------------------------------------|
A|-------------------------------------------------------------------------------------------------|
F|-6-6-6---6-6-6-----------6-6-6---6-6-6-----------6-6-6---6-6-6-----------6-6-6---6-6-6-----------|
C|-------------------------------------------------------------------------------------------------|
G|-------------------------------------------------------------------------------------------------|
C|-5-5-5-5-5-5-5-5-5-5-5-5-5-5-5-5-5-5-5-5-5-5-5-5-7-7-7-7-7-7-7-7-7-7-7-7-7-7-7-7-7-7-7-7-7-7-7-7-|

d|-------------------------------------------------------------------------------------------------|
A|-------------------------7-7---------------------------------------------------------------------|
F|-6-6-6---6-6-6---------------6---6-6-6-4---------6-6-6---6-6-6-----------6-6-6---6-6-6-4---------|
C|-------------------------------------------------------------------------------------------------|
G|-------------------------------------------------------------------------------------------------|
C|-5-5-5-5-5-5-5-5-5-5-5-5-5-5-5-5-5-5-5-5-5-5-5-5-7-7-7-7-7-7-7-7-7-7-7-7-7-7-7-7-7-7-7-7-7-7-7-7-|

Pre Chorus:
d|----------------------------------------------------------------------|
A|----------------------------------------------------------------------|
F|----------------------------------------------------------------------|
C|-14-14-14----14-14-15----------14-14-14-------14-14-15----------------|
G|----------------------------------------------------------------------|
C|-8--8--8-8-8-8--8--8-8-8-8-8-8-10-10-10-10-10-10-10-10-10-10-10-10-10-|

d|----------------------------------------------------------------------------------------------------------|
A|----------------------------------------------------------------------------------------------------------|
F|----------------------------------------------------------------------------------------------------------|
C|-14-14-14-15-15-15-17-17-17-14-14-14-15-15-15-------------------------------------------------------------|
G|-------------------------------------------------7-----------8-----------10----------7-----------8--------|
C|-12-12-12-12-12-12-12-12-12-12-12-12-12-12-12-12-12-12-12-12-12-12-12-12-12-12-12-12-12-12-12-12-12-12-12-|

d|----------------------------------------------------------------------|
A|----------------------------------------------------------------------|
F|----------------------------------------------------------------------|
C|-14-14-14----14-14-15----------14-14-14-------14-14-15----------------|
G|----------------------------------------------------------------------|
C|-8--8--8-8-8-8--8--8-8-8-8-8-8-10-10-10-10-10-10-10-10-10-10-10-10-10-|

d|---------------------------------------------------------------------|
A|---------------------------------------------------------------------|
F|-------------------------------------------------------------------5-|
C|-11-11-11-12-12-12-14-14-14-11-11-11-12-12-12------7---6---5---3---5-|
G|---------------------------------------------------7---6---5---3---3-|
C|-7-7-7-7-7-7-7-7-7-7-7-7-7-7-7-7-7-7-7-7-7-7-7-7-7-7---6---5---3-----|

Chorus:
  x3
d|------------------------------------------8-8--------|
A|--------8-10------8-----8-10--10-10----10-----10-8---|
F|-7---9-------7--9----9-----------------------------9-|
C|-----------------------------------------------------|
G|-----------------------------------------------------|
C|-----------------------------------------------------|

d|-----------------------------------------------|
A|-----------------------------------------------|
F|-----------------------------------------------|
C|-7-7-7-10--12-10--7--10-7--5--5-5--5-5-5-5-5-3-|
G|-5-5-5-8---10-8---5--8--5--3--7-3--5-5-5-5-5-3-|
C|-----------------------------------5-5-5-5-5-3-|

  x3
d|-------------------------------------------8-8------------------------------------------------------|
A|--------8-10------8-----8-10--10-10-----10-----10-8-------------------------------------------------|
F|-7---9-------7--9----9------------------------------9-----------------------------------------------|
C|------------------------------------------------------7-7-7-7-7-7-7-7-7-7-7-7-7-7-7-7-7-7-7-7-7-7-7-|
G|------------------------------------------------------5-5-5-5-5-5-5-5-5-5-5-5-5-5-5-5-5-5-5-5-5-5-5-|
C|----------------------------------------------------------------------------------------------------|

Solo:
d|-----------------------------------------------|
A|-----------------------------------------------|
F|-----------------------------------------------|
C|-----------------------------------------------|
G|-5-5-5-5-5-5-5-5-5-5-5b6-b6-b6-b6-4b5-b5-b5-b5-|
C|-----------------------------------------------|

d|------------------------------------------------------------------------------------------|
A|------------------------------------------------------------------------------------------|
F|------------------------------------------------------------------------------------------|
C|------------------------------------------------------------------------------------------|
G|-5-5-5-8--10-8--5--8-5--3--5-3---------------5-5-5-8--10-8--5--8-5--3--5-3----------(1)---|
C|-------------------------------5-5-5-5-5-3---------------------------------5-5-5-5-5-8----|

d|----------------------------------------------------------------------|
A|----------------------------------------------------------------------|
F|----------------------------------------------------------------------|
C|-------------------------------------------------------3-3-3-3-3-1----|
G|-5-5-5-8--10-8--5--8-5--3--5-3-------------3-3-3-3-3-1----------------|
C|-------------------------------5-5-5-5-5-3----------------------------|

d|-------------------------------------------------------------------------------------------------|
A|-------------------------------------------------------------------------------------------------|
F|-------------------------------------------------------------------------------------------------|
C|-7-7-7-10--12-10--7--10-7--5--7-5--5-5-5-5-5-3---7-7-7-10--12-10--7--10-7--5--7-5--5-5-5-5-5-8---|
G|-5-5-5-8---10-8---5--8--5--3--5-3--5-5-5-5-5-3---5-5-5-8---10-8---5--8--5--3--5-3--5-5-5-5-5-8---|
C|-----------------------------------5-5-5-5-5-3-------------------------------------5-5-5-5-5-8---|

d|-----------------------------------------------------------------------x--------|
A|----------------------------------------------------------6-6-6-6-6-4--x---+7---|
F|----------------------------------------------5-5-5-5-5-3-5-5-5-5-5-3--x-----+7-|
C|-7-7-7-10--12-10--7--10-7--5--7-5-5-5-5-5-5-3-5-5-5-5-5-3-3-3-3-3-3-1--x--------|
G|-5-5-5-8---10-8---5--8--5--3--5-3-5-5-5-5-5-3-3-3-3-3-3-1--------------x--------|
C|----------------------------------5-5-5-5-5-3--------------------------x--------|

d|---------------------------------------------------------------------------------8--10-|
A|--------------------------------------------------------------------8-----9---10-------|
F|-6--4--7--6-9-7-11--7--4----9--7--10--9--12--10-14--10--7----10--7-----7----7----------|
C|---------------------------------------------------------------------------------------|
G|---------------------------------------------------------------------------------------|
C|---------------------------------------------------------------------------------------|

  x3
d|---------------------------------------|
A|-10-10-10-10---10-10-10-10---10-11-8---|
F|---------------------------------------|
C|---------------------------------------|
G|---------------------------------------|
C|---------------------------------------|

d|---------------|
A|---------------|
F|---------------|
C|-7--6--5--3----|
G|-------------3-|
C|---------------|

Chorus:
  x3
d|------------------------------------------8-8--------|
A|--------8-10------8-----8-10--10-10----10-----10-8---|
F|-7---9-------7--9----9-----------------------------9-|
C|-----------------------------------------------------|
G|-----------------------------------------------------|
C|-----------------------------------------------------|

d|-----------------------------------------------|
A|-----------------------------------------------|
F|-----------------------------------------------|
C|-7-7-7-10--12-10--7--10-7--5--7-5--5-5-5-5-5-3-|
G|-5-5-5-8---10-8---5--8--5--3--5-3--5-5-5-5-5-3-|
C|-----------------------------------5-5-5-5-5-3-|

  x3
d|-------------------------------------------8-8--------|
A|--------8-10------8-----8-10--10-10-----10-----10-8---|
F|-7---9-------7--9----9------------------------------9-|
C|------------------------------------------------------|
G|------------------------------------------------------|
C|------------------------------------------------------|

  x3
d|-------------------------------------|
A|-10-10-10-10---10-10-10-10---10-11-8-|
F|-------------------------------------|
C|-------------------------------------|
G|-------------------------------------|
C|-------------------------------------|

d|---------------|
A|---------------|
F|-------------5-|
C|-7--6--5--3--5-|
G|-7--6--5--3--3-|
C|-7--6--5--3----|
Outro:
d|-------------------------------------------------------------------------------------------------|
A|-------------------------------------------------------------------------------------------------|
F|-------------------------------------------------------------------------------------------------|
C|-7-7-7-10--12-10--7--10-7--5--7-5--5-5-5-5-5-3---7-7-7-10--12-10--7--10-7--5--7-5--5-5-5-5-5-8---|
G|-5-5-5-8---10-8---5--8--5--3--5-3--5-5-5-5-5-3---5-5-5-8---10-8---5--8--5--3--5-3--5-5-5-5-5-8---|
C|-----------------------------------5-5-5-5-5-3-------------------------------------5-5-5-5-5-8---|

d|-----------------------------------------------------------------------|
A|----------------------------------------------------------6-6-6-6-6-4--|
F|----------------------------------------------5-5-5-5-5-3-5-5-5-5-5-3--|
C|-7-7-7-10--12-10--7--10-7--5--7-5-5-5-5-5-5-3-5-5-5-5-5-3-3-3-3-3-3-1--|
G|-5-5-5-8---10-8---5--8--5--3--5-3-5-5-5-5-5-3-3-3-3-3-3-1--------------|
C|----------------------------------5-5-5-5-5-3--------------------------|

d|-----------------------------x------------------------------x------------------------------x-------------|
A|-----------------------------x------------------------------x------------------------------x-------------|
F|-----------------------------x------------------------------x------------------------------x-5-5-5-5-5---|
C|-7-7-7-10--12-10-5-5-5-5-5-3-x--7-7-7-10--12-10-5-5-5-5-5-8-x--7-7-7-10--12-10-5-5-5-5-5-3-x-3-3-3-3-3-7-|
G|-5-5-5-8---10-8--5-5-5-5-5-3-x--5-5-5-8---10-8--5-5-5-5-5-8-x--5-5-5-8---10-8--5-5-5-5-5-3-x-----------5-|
C|-----------------5-5-5-5-5-3-x------------------5-5-5-5-5-8-x------------------5-5-5-5-5-3-x-------------|

Enjoy :D

************************************

| /   slide up
| \   slide down
| h   hammer-on
| p   pull-off
| ~   vibrato
| +   harmonic
| x   Mute note
| b   Bend
| pb  Pre-bend
| br  Bend release
| pbr Pre-bend release
| brb Bend release bend

************************************
Добавлено: 06.11.2015
Другие материалы по этой песне:

Страница создана 06.11.2015
http://primanota.ru/dizzy-mizz-lizzy/made-to-believe-chords.htm
Привет, Гость.
Предлагаем пройти революционный курс по гитаре.
Подарок от PrimaNota.Ru, забирай!