PrimaNota.ru - самый крупный в мире бесплатный архив песенных текстов, аккордов, табулатур и нот


Dizzy Mizz Lizzy - Love Me A Little - текст песни, таба, бас-таба, видео

Регистрация Запомнить меня
Войти через:  Facebook Google Twitter Vk Yandex Mail.ru

Dizzy Mizz Lizzy - Love Me A Little - текст песни, таба, бас-таба, видео

Печатать
Просмотров: 56
-------------------------------------------------------------------------------
                             Love Me A Little - Dizzy Mizz Lizzy
-------------------------------------------------------------------------------
Tabbed by: Anasky


Tuning: Standard : EADGBe

0:00 - 0:27 Intro
0:28 - 0:49 First verse
0:50 - 0:59 Guitar riff
1:00 - 1:22 Second verse
1:23 - 1:33 Guitar riff
1:34 - 2:02 First chorus
2:03 - 2:14 Guitar riff
2:15 - 2:36 Third verse
2:37 - 2:46 Guitar riff
2:47 - 3:15 Second Chorus
3:16 - 3:48 Guitar riff
3:49 - 4:02 Chorus riff (p2) + End phrase


Riff 1 - Guitar:
e|---------------------------------------------------------------------------|
B|---------------------------------------------------------------------------|
G|-----6h7p6-----5-4---------------------------------------------------------|
D|-7-7-------7-5*------------------------------------------------------------| x4
A|-0-0-----------------------------------------------------------------------| 
E|---------------------------------------------------------------------------|
(on fourth time, let the note on fifth* fret fade out)
 
Bass and drums take over the first verse. When first verse is done, play the intro riff 
again
e|---------------------------------------------------------------------------|
B|---------------------------------------------------------------------------|
G|------6h7p6-----5-4--------------------------------------------------------|
D|-7-7--------7-5*-----------------------------------------------------------| x4
A|-0-0-----------------------------------------------------------------------| 
E|---------------------------------------------------------------------------| 
(on fourth time, let the note on fifth* fret fade out)

Verse 2: The same deal as before, except guitar will play the bass part midway.
e|---------------------|------------------------------------------------------|
B|---------------------|------------------------------------------------------|
G|---------------------|------6h7p6-----5-4-----------------------------------|
D|---------------------|--7-7-------7-5---------------------------------------| 
A|-----4h5p4------3-2--|--0-0-------------------------------------------------| 
E|-5-5-------5--3------|------------------------------------------------------| 
                        ^Switch back to normal riff^
Play each section 4 times in a row - 4 times bass part, THEN 4 times guitar riff
                        

Chorus part 1:
e|---------------------------------------------------------------------------|
B|---------------------------------------------------------------------------|
G|-5-5-5-5-5-5-5-5-5-5-5-5-5-5-5-5-5-5-5-5-5-5-5-5-5-5-5-5-5-5-5-5-----------|
D|-5-5-5-5-5-5-5-5-5-5-5-5-5-5-5-5-5-5-5-5-5-5-5-5-5-5-5-5-5-5-5-5-----------| x2
A|-3-3-3-3-3-3-3-3-3-3-3-3-3-3-3-3-0-0-0-0-0-0-0-0---------------------------|
E|-0-0-0-0-0-0-0-0-6-6-6-6-6-6-6-6-----------------4-4-4-4-4-4-4-4-----------|
   x x x x x x x x x x x x x x x x x x x x x x x x x x x x x x x x

Chorus part 2:
e|---------------------------------------------------------------------------|
B|---------------------------------------------------------------------------|
G|-9-9-9--7h9/5----4-5-6-----------------------------------------------------|
D|-7-7-7--------7--5-6-7-----------------------------------------------------|
A|---------------------------------------------------------------------------|
E|---------------------------------------------------------------------------|

End phrase
e|---------------------------------------------------------------------------|
B|---------------------------------------------------------------------------|
G|---------------------------------------------------------------------------|
D|---------------------------------------------------------------------------|
A|---------------------------------------------------------------------------|
E|-5-6-7---------------------------------------------------------------------|



************************************

| /   slide up
| h   hammer-on
| p   pull-off
| x   Mute note

************************************
Добавлено: 06.11.2015
Другие материалы по этой песне:

Страница создана 15.04.2012
http://primanota.ru/dizzy-mizz-lizzy/love-me-a-little-chords.htm
Привет, Гость.
Предлагаем пройти революционный курс по гитаре.
Подарок от PrimaNota.Ru, забирай!