PrimaNota.ru - самый крупный в мире бесплатный архив песенных текстов, аккордов, табулатур и нот


Dizzy Gillespie - Woody'n You - таба, видео

Регистрация Запомнить меня
Войти через:  Facebook Google Twitter Vk Yandex Mail.ru

Dizzy Gillespie - Woody'n You - таба, видео

Печатать
Просмотров: 49
Авторы музыки: Dizzy Gillespie

-------------------------------------------------------------------------------
                           Woodyn' You - Dizzy Gillespie
-------------------------------------------------------------------------------
Tuning: Standard
  
[A]
  Gm7(b5)          C7(#9)           Fm7(b5)          Bb7(#9)            
e|--------3-------|----------------|----------------|----------------|
B|----6---------6-|4---------------|----4---6-----4-|----------------|
G|----------------|--5-------------|----------------|6-3-------------|
D|----------------|----------------|----------------|----------------|
A|----------------|----------------|----------------|----------------|
E|----------------|----------------|----------------|----------------|
  
  Ebm7(b5)         Ab7(#9)          Dbmaj7    Ab7    Db6
e|----------------|----------------|----------------|----------------|
B|--------4-------|----------------|----1-4-----3-1-|2---------------|
G|----6---------6-|4---------------|--1-------------|--3-------------|
D|----------------|--6---------4-2-|3---------------|----------------|
A|----------------|----------------|----------------|----------------|
E|----------------|----------------|----------------|----------------|

[B]
  Abm7     Db7     Abm7     Db7     Abm7     Db7     Gbmaj7
e|----------------|----------------|----------------|----------------|
B|----------------|----------------|----------------|----------------|
G|3---------------|3---------------|3---------2-----|3---------------|
D|----6-4-3---4-6-|----6-4-3---4-6-|--4-------------|----------------|
A|----------------|----------------|----6-2-5-----5-|----------------|
E|----------------|----------------|----------------|----------------|

  Bbm7     Eb7     Bbm7     Eb7     Bbm7     Eb7     Abmaj7
e|----------------|----------------|----------------|----------------|
B|----------------|----------------|----------------|----------------|
G|5---3---------3-|5---3---------3-|5---------4-----|5---------------|
D|------6-5---6---|------6-5---6---|--6-3---2-----2-|----------------|
A|----------------|----------------|------4---------|----------------|
E|----------------|----------------|----------------|----------------|


Song Structure [A][A][B][A]
Добавлено: 29.05.2016
Вам также может быть интересно:
Другие материалы по этой песне:

Страница создана 25.05.2012
http://primanota.ru/dizzy-gillespie/woodyn-you-chords.htm
Привет, Гость.
Предлагаем пройти революционный курс по гитаре.
Подарок от PrimaNota.Ru, забирай!