PrimaNota.ru - самый крупный в мире бесплатный архив песенных текстов, аккордов, табулатур и нот


Dizzee Rascal - Holiday Live - таба, видео

Регистрация Запомнить меня
Войти через:  Facebook Google Twitter Vk Yandex Mail.ru

Dizzee Rascal - Holiday Live - таба, видео

Печатать
Просмотров: 105
-----------------------------------------------------------------
Holiday  - Dizzee Rascal
-----------------------------------------------------------------
Tabbed by: Iain Peters
Email: Tiziain@hotmail.com

This is a rough tab of the rhythm parts which Guthrie Govan plays on Dizzee's Live 
Version of 'Holiday' on Beebeesee radio1

As with my other tabs, i have just wrote up the parts, not the order. However, you can 
the order in which the parts are played here:

http://www.youtube.com/watch?v=mZzcRyGHgzM (I prefer Mr Govan's solo here personally)
Or here
http://www.youtube.com/watch?v=4bJ96cz6zK0

Tuning: Standard EADGBe

Verses

e|------------------------|--------------------------------------------|
B|------------------------|--------------------------------------------|
G|-0-2-4-5--5--5---4-5-7--|-9---9---9---7---9--7---5-5-5--4-5-4--2-2-2-|
D|-2-3-5-7--7--7---5-7-9--|-10--10--10--9---10-9---7-7-7--5-7-5--3-3-3-|xlots
A|-3-5-7-8--8--8---7-8-10-|-12--12--12--10--12-10--8-8-8--7-8-7--5-5-5-|
E|------------------------|--------------------------------------------|


Chorus

e|-8--8---7-7--5-5--10--12-|
B|-10-10--8-8--6-6--10--10-|
G|-9--9---9-9--7-7--10--10-| x3
D|------------------8---10-|
A|-------------------------|
E|-------------------------|

e|--15-15-13--12--10-12---8--8-10-12-----------||
B|-----------------------------------10---8----||
G|--12-12-10---9---7--9---5--5--7--9-----------|| x1
D|------------------------------------7---5----||
A|---------------------------------------------||
E|---------------------------------------------||

Middle 8

e|-8---8-8-8--7--7-7-7--5--5-5-5--5--5-5-5-|
B|-10--101010-8--8-8-8--6--6-6-6--6--6-6-6-|
G|-9---9-9-9--9--9-9-9--7--7-7-7--5--5-5-5-|
D|-----------------------------------------|
A|-----------------------------------------|
E|-----------------------------------------|

e|-5--5-5-5--7--7-7-7--8---8-8-8--||
B|-6--6-6-6--8--8-8-8--10--101010-||
G|-5--5-5-5--9--9-9-9--9---9-9-9--|| x lots
D|--------------------------------||
A|--------------------------------||
E|--------------------------------||

Play this until just before Guthrie Takes a solo when he builds up on an Inversion of an 
Maj7 chord like this...

e|-12-|
B|-10-|
G|-10-|
D|-10-|
A|----|
E|----|

Then Comes the solo, but Alas, I am nowhere near skilled enough to transcribe a Guthrie 
solo,
 and even if i was, it's not very audible due to Dizzee and co doing some form of skat singing.

End on

e|--0--|
B|--1--|
G|--2--|
D|--2--|
A|--0--|
E|-----|


Hopefully, someone more accomplished at transcribing will have a crack at doing that solo.
It's a nice progression to improvise over though, so have fiddle about with it and make 
your own bitchin' solo :)

Cheers, rate and comment and stuff. :)

| /  slide up
| \  slide down
| h  hammer-on
| p  pull-off
| ~  vibrato
| +  harmonic
| x  Mute note
Добавлено: 25.06.2012
Другие материалы по этой песне:
  • Аккорды и текст

Страница создана 25.06.2012
http://primanota.ru/dizzee-rascal/holiday-live-chords.htm
Привет, Гость.
Предлагаем пройти революционный курс по гитаре.
Подарок от PrimaNota.Ru, забирай!