PrimaNota.ru - самый крупный в мире бесплатный архив песенных текстов, аккордов, табулатур и нот


Divlje Jagode - Sejla - таба, видео

Регистрация Запомнить меня
Войти через:  Facebook Google Twitter Vk Yandex Mail.ru

Divlje Jagode - Sejla - таба, видео

Печатать
Просмотров: 134
Uvod - bas

E--------------------------------------
H--------------------------------------
G--------------------------------------
D--------------------------3-5-5-5—-5--
A--3-5-5-5-5-5-5-5-3-5-5-5---------3---
E--------------------------------------

Gitara

Riff 1
E----------------------------------
H----------------------------------
G-----------------------------7----  2x
D—-5-/7-x-x-x-xx-7--5-/7-x-xx-5-5--
A—-3-/5-x-x-x-xx-5--3-/5-x-xx---3--
E----------------------------------

Riff 2
E--------------------------------
H--------------------------------
G-----------------------------7--
D—-5-/7-x-x-x-xx-7--5-/7-x-xx-5--
A—-3-/5-x-x-x-xx-5--3-/5-x-xx----
E--------------------------------

Riff 3
E---------------------------------
H---------------------------------
G---------------------------------
D--5--7--------3-----3------------
A--3--5--0-3-0---5-0-1--0---3-xx--
E-------------------------3-1-xx--

Riff 4
Bas                          Gitara

E--------------------------- -----------13-15-17b---
H--------------------------- -x-15-13h15------17b---
G--------------------------- -----------------------
D--5-7-7-7-7-7-7-7-5-7-7-7-- -----------------------
A--------------------------- -----------------------
E--------------------------- -----------------------

Riff 1
Oci tvoje gube sjaj
Riff 1
I nasoj prici vec je kraj
Riff 1
Odlazis mi zadnji put
Riff 2
Nisam kriv, a nisam ljut.   mmmmmmm

Refren:

Riff 3
Sejla ...

Riff 3
Sejla ...

Riff 3
Sejla ...

Riff 3
Sejla ...

Riff 4
Oooo,ooo

Riff 1 2x

Pored rijeke pusto sve
Samo sjenke bore se
Gledam tuzno kao pas
Nikad nista od nas.

Refren:

Sejla ...
Sejla ...
Sejla ...
Sejla ...

Riff 4 (samo bas)
Oooo,ooo

Solo
E--------------------------------------------------------------------
H--------------------------------------------------------------------
G—-3p0h3p0h3p0h3p0h3p0h3p0h3p0h3p0-2p0h2p0h2p0h2p0h2p0h2p0h2p0hg2p0--
D--------------------------------------------------------------------
A--------------------------------------------------------------------
E--------------------------------------------------------------------

E--------------------------------------------------------------------
H--------------------------------------------------------------------
G—-3p0h3p0h3p0h3p0h3p0h3p0h3p0h3p0-2p0h2p0h2p0h2p0h2p0h2p0h2p0hg2p0--
D--------------------------------------------------------------------
A--------------------------------------------------------------------
E--------------------------------------------------------------------

E--------------------------------------------------------------------
H--------------------------------------------------------------------
G—-3p0h3p0h3p0h3p0h3p0h3p0h3p0h3p0-2p0h2p0h2p0h2p0h2p0h2p0h2p0hg2p0--
D--------------------------------------------------------------------
A--------------------------------------------------------------------
E--------------------------------------------------------------------

E-------------------------------------------------------
H-------------------------------------------------------
G—-3p0h3p0h3p0h3p0-5p0h5p0h5p0h5p0-7p0h7p0h7p0h7p0-7-\--
D-------------------------------------------------------
A-------------------------------------------------------
E-------------------------------------------------------

E-----------------------------------1--1------
H---------------------------------------------
G------------------------2-0-2-3-2-3----3-2---
D-------2-0-2-3-2-3-5-3-5------------------0--
A--5-3-5--------------------------------------
E---------------------------------------------

impro
E------------------10-13-10------------------------
H----------------10--------13-10-------------------
G--10--12-10--------------------12-10--------------
D-----------12-10--------------------12-10---------
A-----------------------------------------12-10----
E----------------------------------------------10--

E-------------------------------------------------------------
H----------------------------3---------------------3-4/6------
G-----------------222-333-555-----------------2/3-5-----7b-\--
D--000-222-333-555-------------0-0-2-2-3-3-5-5----------------
A-------------------------------------------------------------
E-------------------------------------------------------------

E------------------------------------------------
H------------------------------------------------
G--3-0-5-0-3-------------3-x-5-0-3---------------
D-------------5-3-0-3-5-------------x-0-3-0-3-5--
A------------------------------------------------
E------------------------------------------------

E--------------------------------------------------------------
H-------8-8-8-8-8-8-8-8-8-8-8-8-8-8b--8-6-8-8-8-6---8-6--------
G—-5/7--7-7-5-7-7-5-7-7-5-7-7-5-7-----------7--7-7-7---7-5-----
D---------------------------------------------------------8-5--
A--------------------------------------------------------------
E--------------------------------------------------------------



E------------------------------------------------------------------
H—-8/10--10-10-10-10-10-10-10-10-10-10-10-10-10-13-13-12-12-10-10--
G—-7/-9---9--9--7--9--9--7--9--9--7--9--9--7--9-12-12-11-11--9—-9--
D------------------------------------------------------------------
A------------------------------------------------------------------
E------------------------------------------------------------------

E------------------------------------------------------------------
H--13-13-12-12-10-10-10-10-10-10-10-10-10-10-10-10-10-10-10-10-10--
G--12-12-11-11--9--9--9--9--7--9--9--7--9--9--7--9--9--7--9--9--9--
D------------------------------------------------------------------
A------------------------------------------------------------------
E------------------------------------------------------------------

E--------------------------------------
H—-8/10-10-10-10-10-10-10-10-10-\-\-\--
G—-7/-9--9--9--9--9--9--9--9--9-\-\-\--
D--------------------------------------
A--------------------------------------
E--------------------------------------

Refren

* Ovde u refrenu samo kada prva 2 puta govorite Sejla
* svirate Riff 3. Za sva ostala ponavljanja svirate u
* pozadini Figuru 1. To je sve

Figura 1
E—------10----------13-10-\--------
H---13b----10-13-10---------11-10--
G---------------------------12-10--
D----------------------------------
A----------------------------------
E----------------------------------
Добавлено: 11.03.2012
Другие материалы по этой песне:

Страница создана 11.03.2012
http://primanota.ru/divlje-jagode/sejla-chords.htm
Привет, Гость.
Предлагаем пройти революционный курс по гитаре.
Подарок от PrimaNota.Ru, забирай!