PrimaNota.ru - самый крупный в мире бесплатный архив песенных текстов, аккордов, табулатур и нот


Divlje Jagode - Autostop - таба, видео

Регистрация Запомнить меня
Войти через:  Facebook Google Twitter Vk Yandex Mail.ru

Divlje Jagode - Autostop - таба, видео

Печатать
Просмотров: 235
E||------------------------------------------------|
B||------------------------------------------------|
G||--s/9~--9--7h9p7---7h9---s/9~--9--7h9p7---7h9---|
D||-----------------9----------------------9-------|
A||------------------------------------------------|
E||------------------------------------------------|

|--------------------------------------------------|
|---------------------8--------x-x-------x-x-------|
|-/9~--9--7h9p7---7-----9~-----x-x-9-7~--x-x-9-7~--|
|---------------9---9------------------------------|
|--------------------------------------------------|
|--------------------------------------------------|

Ovaj drugi deo je moja vlastita improvizacija, priblizno to bi bilo to.
Pokusajte brzo hammer/pull off ili tremolo picking (improvizujte:)
u pitanju je Em pentatonic skala
                                                        itd...
|-----------------------------------------------------------|
|-----------------------------------------------------------|
|---------------------------------------------7h9p7...------|
|-----------------------------------7h9p7h9p7---------------|
|------------------7h10p7h10p7h10p7-------------------------|
|-7h10p7h10p7h10p7------------------------------------------|


P.M.=.              .         .             /     /\      /
|----------------------------------------10b---10r---7-10b--|
|-8h10p8h10p8---------10--------10--------------------------|
|-------------7-----7----7~---7----7~-----------------------|
|---------------9~------------------------------------------|
|-----------------------------------------------------------|
|-----------------------------------------------------------|
Добавлено: 04.04.2012
Другие материалы по этой песне:
  • Аккорды и текст

Страница создана 04.03.2012
http://primanota.ru/divlje-jagode/autostop-chords.htm
Привет, Гость.
Предлагаем пройти революционный курс по гитаре.
Подарок от PrimaNota.Ru, забирай!