PrimaNota.ru - самый крупный в мире бесплатный архив песенных текстов, аккордов, табулатур и нот


Division Of Laura Lee - Need To Get Some - текст песни, таба, видео

Регистрация Запомнить меня
Войти через:  Facebook Google Twitter Vk Yandex Mail.ru

Division Of Laura Lee - Need To Get Some - текст песни, таба, видео

Печатать
Просмотров: 88
Title: Need to Get Some
Artist: Division Of Laura Lee
Album: Black City
Written by: Division Of Laura Lee and Markku Mulari
Published by: Songs and Stories Publishing, 2002, Burning Heart Records,
S2022-2

Transcibed by; Bob Koenig

                   --------------------------------

Here is my interpretation of “Need To Get Some”.  I'm sure
there are more
details to it, but it sounds good to me. You can play this tab along with
the
CD. You can blame me if you find any mistakes of inconsistencies.



E------------------------
B------------------------
G------------------------
D--------9-------9-11-11-
A------------------------
E---9-9----9-9-----------
Repeat 6 times


E-------------------
B-------------------
G-------------------
D-------------------
A-------------------
E---9-9-9-9-9-9-9-9-
Repeat 4 times


E-------------------
B-------------------
G-------------------
D-------------------
A-------------------
E---6-6-6-6-6-6-6-6-
Repeat 2 times


E-------------------
B-------------------
G-------------------
D-------------------
A-------------------
E---9-9-9-9-9-9-9-9-
Repeat 6 times


E-----------------------------------
B-----------------------------------
G-----------------------------------
D-----------------------------------
A-----------------------------------
E---6-6-6-6-6-6-6-6-7-7-7-7-7-7-7-7-


E-----------------------------------
B-----------------------------------
G-----------------------------------
D-----------------------------------
A-----------------------------------
E---9-9-9-9-9-9-9-9-9-9-9-9-9-9-9-9-


E-----------------------------------
B-----------------------------------
G-----------------------------------
D-----------------------------------
A-----------------------------------
E---6-6-6-6-6-6-6-6-7-7-7-7-7-7-7-7-


E--------------------------------------------------
B--------------------------------------------------
G--------------------------------------------------
D---16--11--14--11--14--11--14--11--14--16--14--13-
A---16--11—-12—-11--12--11--14--11--14--16--14--13-
E---14--9---12--9---12--9---12--9---12--14--12--11-


E------------------------
B------------------------
G------------------------
D--------9-------9-11-11-
A------------------------
E---9-9----9-9-----------
Repeat 4 times


E-------------------
B-------------------
G-------------------
D-------------------
A-------------------
E---9-9-9-9-9-9-9-9-
Repeat 4 times


E-------------------
B-------------------
G-------------------
D-------------------
A-------------------
E---6-6-6-6-6-6-6-6-
Repeat 2 times


E-------------------------------------
B-------------------------------------
G-------------------------------------
D-------------------14-14-14-14-14-14-
A-------------------14-14-14-14-14-14-
E---9-9-9-9-9-9-9-9-12-12-12-12-12-12-


E---------------------------
B---------------------------
G---------------------------
D---11-11-11-11-11-11-11-11-
A---11-11-11-11-11-11-11-11-
E---9--9--9--9--9--9--9--9--
Repeat 4 times


E-----------------------------------
B-----------------------------------
G-----------------------------------
D---8-8-8-8-8-8-8-8-9-9-9-9-9-9-9-9-
A---8-8-8-8-8-8-8-8-9-9-9-9-9-9-9-9-
E---6-6-6-6-6-6-6-6-7-7-7-7-7-7-7-7-


E---------------------------------------------------
B---------------------------------------------------
G---------------------------------------------------
D---11-11-11-11-11-11-11-11-11-11-11-11-11-11-11-11-
A---11-11-11-11-11-11-11-11-11-11-11-11-11-11-11-11-
E---9—-9--9--9--9--9--9--9--9—-9--9--9—-9--9--9--9--


E-----------------------------------
B-----------------------------------
G-----------------------------------
D---8-8-8-8-8-8-8-8-9-9-9-9-9-9-9-9-
A---8-8-8-8-8-8-8-8-9-9-9-9-9-9-9-9-
E---6-6-6-6-6-6-6-6-7-7-7-7-7-7-7-7-


E--------------------------------------------------
B--------------------------------------------------
G--------------------------------------------------
D---16--11--14--11--14--11--14--11--14--16--14--13-
A---16--11--12--11--12--11--14--11--14--16--14--13-
E---14--9---12--9---12--9---12--9---12--14--12--11-


E-------------------
B-------------------
G-------------------
D-------------------
A-------------------
E---9-9-9-9-9-9-9-9-
Repeat 4 times

E---------------------------
B---------------------------
G---------------------------
D---11-11-11-11-11-11-11-11-
A---11-11-11-11-11-11-11-11-
E---9—-9--9--9--9--9--9--9--
Repeat 4 times


E-------------------
B-------------------
G-------------------
D---8-8-8-8-8-8-8-8-
A---8-8-8-8-8-8-8-8-
E---6-6-6-6-6-6-6-6-
Repeat 2 times

E---------------------------
B---------------------------
G---------------------------
D---11-11-11-11-11-11-11-11-
A---11-11-11-11-11-11-11-11-
E---9—-9--9—-9--9--9--9--9--
Repeat 4 times

E-----------------------------------
B-----------------------------------
G-----------------------------------
D---8-8-8-8-8-8-8-8-9-9-9-9-9-9-9-9-
A---8-8-8-8-8-8-8-8-9-9-9-9-9-9-9-9-
E---6-6-6-6-6-6-6-6-7-7-7-7-7-7-7-7-

E---------------------------------------------------
B---------------------------------------------------
G---------------------------------------------------
D---11-11-11-11-11-11-11-11-11-11-11-11-11-11-11-11-
A---11-11-11-11-11-11-11-11-11-11-11-11-11-11-11-11-
E---9—-9—-9--9--9--9--9--9--9--9--9--9--9--9--9--9--


E--------------------------------------
B--------------------------------------
G--------------------------------------
D---8-8-8-8-8-8-8-8-9-9-9-9-9-9-9-9-11-
A---8-8-8-8-8-8-8-8-9-9-9-9-9-9-9-9-11-
E---6-6-6-6-6-6-6-6-7-7-7-7-7-7-7-7-9--


E------------------------
B------------------------
G------------------------
D--------9-------9-11-11-
A------------------------
E---9-9----9-9-----------
Repeat 8 times


E-----
G-----
D-----
A-----
E---9-


Play it again, this time louder!
     
Добавлено: 04.07.2013
Другие материалы по этой песне:
  • Аккорды и текст

Страница создана 13.03.2012
http://primanota.ru/division-of-laura-lee/need-to-get-some-chords.htm
Привет, Гость.
Предлагаем пройти революционный курс по гитаре.
Подарок от PrimaNota.Ru, забирай!