PrimaNota.ru - самый крупный в мире бесплатный архив песенных текстов, аккордов, табулатур и нот


Division Minuscula - Todo - таба, видео

Регистрация Запомнить меня
Войти через:  Facebook Google Twitter Vk Yandex Mail.ru

Division Minuscula - Todo - таба, видео

Печатать
Просмотров: 93
INTRODUCCION:

e|--------------------------------|
B|--------------------------------|
G|--------------------------------|
D|--7-7---5-5--3--3--3------------|
A|--5-5---3-3--1--1--1------------|
E|--------------------------------|Se Repite 6 veces


De que me sirve correr? si sé que nunca llegaré....
e|-----------------------------------------------------|
B|-----------------------------------------------------|
G|-----------------------------------------------------|
D|---------------5-x-5-5-x-5--7-x-7-7-x-7--3-x-3-3-x-3-|
A|--3-x-3-3-x-3--3-x-3-3-x-3--5-x-5-5-x-5--1-x-1-1-x-1-|
E|--1-x-1-1-x-1----------------------------------------|

Para que? si todo sigue igual, intente o no lo intente....
e|---------------------------------------|
B|---------------------------------------|
G|---------------------------------------|
D|--7-7-7-7----3-3-3-3-----------5-5-5-5-|
A|--5-5-5-5----1-1-1-1--3-3-3-3--3-3-3-3-|
E|----------------------1-1-1-1----------|

Todo lo que quiero es sonreir una vez mas....
e|--------------------------------------------|
B|--------------------------------------------|
G|--------------------------------------------|
D|--7-7-7-7---5-5-5-5-5--3--3--3--3-----------|
A|--5-5-5-5---3-3-3-3-3--1--1--1--1-----------|
E|--------------------------------------------|

Deja de buscar explicaciones a todo mi alrededor....
e|-----------------------------------------------------------|
B|-----------------------------------------------------------|
G|-----------------------------------------------------------|
D|--7-7-7-7---5-5-5-5-5---3--3--3--3-------------------------|
A|--5-5-5-5---3-3-3-3-3---1--1--1--1--3--3--3--5--5--5--3--3-|
E|------------------------------------1--1--1--3--3--3--1--1-|

Se repite la intro
e|---------------------------------------|
B|---------------------------------------|
G|---------------------------------------|
D|--7-7-7-7---5-5-5-5-5--3--3--3--3------|
A|--5-5-5-5---3-3-3-3-3--1--1--1--1------|
E|---------------------------------------|6 veces

Solo quiero ir a un lugar extraño....
guitarra 1 (en acordes largos)
e|-----------------------------------------------------|
B|-----------------------------------------------------|
G|-----------------------------------------------------|
D|---------------5-------------------------3-----------|
A|--3------------3-------------------------1-----------|
E|--1--------------------------------------------------|
guitarra 2
e|-----------------------------------------------------|
B|-----------------------------------------------------|
G|-----------------------------------------------------|
D|---------------5-x-5-5-x-5--7-x-7-7-x-7--3-x-3-3-x-3-|
A|--3-x-3-3-x-3--3-x-3-3-x-3--5-x-5-5-x-5--1-x-1-1-x-1-|
E|--1-x-1-1-x-1----------------------------------------|

Y esta vez no pienso remediar....
e|---------------------------------------|
B|---------------------------------------|
G|---------------------------------------|
D|--7-7-7-7----3-3-3-3-----------5-5-5-5-|
A|--5-5-5-5----1-1-1-1--3-3-3-3--3-3-3-3-|
E|----------------------1-1-1-1----------|

Todo lo que quiero es sonreir una vez mas....
e|--------------------------------------------|
B|--------------------------------------------|
G|--------------------------------------------|
D|--7-7-7-7---5-5-5-5-5--3--3--3--3-----------|
A|--5-5-5-5---3-3-3-3-3--1--1--1--1-----------|
E|--------------------------------------------|

Deja de buscar explicaciones a todo mi alrededor....
e|-----------------------------------------------------------|
B|-----------------------------------------------------------|
G|-----------------------------------------------------------|
D|--7-7-7-7---5-5-5-5-5---3--3--3--3-------------------------|
A|--5-5-5-5---3-3-3-3-3---1--1--1--1--3--3--3--5--5--5--3--3-|
E|------------------------------------1--1--1--3--3--3--1--1-|

Todo lo que quiero, todo lo que quiero, todo oooo....
e|------------------------------|
B|------------------------------|
G|--7----5----3-----------------|
D|--7----5----3-----------------|
A|--5----3----1----3 x-x--------|
E|-----------------1-x-x--------|2 veces


e|------------------------------------------------|
B|------------------------------------------------|
G|--7-------------5-------------3-----------------|
D|--x-------------x-------------x----3------------|
A|--5-(6 veces)---3-(6 veces)---1----x------------|
E|-----------------------------------1------------|2 veces

Termina en

D|---3-
A|---1-
E|-----
Добавлено: 09.05.2012
Другие материалы по этой песне:
  • Аккорды и текст

Страница создана 09.05.2012
http://primanota.ru/division-minuscula/todo-chords.htm
Привет, Гость.
Предлагаем пройти революционный курс по гитаре.
Подарок от PrimaNota.Ru, забирай!