PrimaNota.ru - самый крупный в мире бесплатный архив песенных текстов, аккордов, табулатур и нот


Division Minuscula - Muriendo En Un Simulacro - таба, видео

Регистрация Запомнить меня
Войти через:  Facebook Google Twitter Vk Yandex Mail.ru

Division Minuscula - Muriendo En Un Simulacro - таба, видео

Печатать
Просмотров: 101
-------------------------------------------------------------------------------
                MURIENDO EN UN SIMULACRO - Division Minuscula
-------------------------------------------------------------------------------
Tabbed by:Rafa88offspring
Email: rafa88offspring@hotmail.com

Tuning: Drop D (DADgbe)

Alguien me pidió el tab de esta rolilla, y pues aqui está, cualquier duda,
corrección o lo que sea ya saben, tienen mi mail.

Intro
e|-------------------------------------------------------------|
B|-------------------------------------------------------------|
G|-------------------------------------------------------------|
D|------------------------555-33-----------------------333-55--|
A|------0---3-------------555-33-----0---3-------------333-55--|
D|-\0-0---0---0-0-0-0-0-0-555-33-0-0---0---0-0-0-0-0-0-333-55--|

e|------------------------------------------------------------|
B|------------------------------------------------------------|
G|------------------------------------------------------------|
D|------------------------555-33------------------------------|
A|------0---3-------------555-33-----10---10-8-8-----8-----8--|
D|-\0-0---0---0-0-0-0-0-0-555-33-8-8----8--------555---5-5----|

Antes del verso
e|---------|
B|---------|
G|---------|
D|-555-33--|
A|-555-33--|
D|-555-33--|

Guitarra entra en el verso
"eso no me va a cambiar"
e|--------------------|
B|--------------------|
G|--------------------|
D|-88888888-55555555--|
A|-88888888-55555555--|
D|-88888888-55555555--|

Verso con guitarra
e|--------------------------------------------------------------------------|
B|--------------------------------------------------------------------------|
G|--------------------------------------------------------------------------|
D|-00000000000-55-33-00000000000-33-55-00000000000-55-33-88888888-55555555--|
A|-00000000000-55-33-00000000000-33-55-00000000000-55-33-88888888-55555555--|
D|-00000000000-55-33-00000000000-33-55-00000000000-55-33-88888888-55555555--|

"Buscas honestidad..."
e|-------------------------------------------------------------------|
B|-------------------------------------------------------------------|
G|-------------------------------------------------------------------|
D|-0-00-0-00-000--0-00-0-00-000--8-88-8-88-888----------------8-777--|
A|-0-00-0-00-000--0-00-0-00-000--8-88-8-88-888--10-1010-12-10-8-777--|
D|-0-00-0-00-000--0-00-0-00-000--8-88-8-88-888--8--8-8--10-10-8-777--|

Coro
e|----------------------------------------|
B|----------------------------------------|
G|----------------------------------------|
D|-888888777777-00-----5-------------3-3--| X 2
A|-888888777777-00-0h3---3p0-3-0h3p0------|
D|-888888777777-00------------------------|

"Como intentar definir..."
e|-----------------------------------------------------------|
B|-----------------------------------------------------------|
G|-----------------------------------------------------------|
D|-88888888-1010101010101010-00000000-77777777-88888888-7-7--|
A|-88888888-1010101010101010-00000000-77777777-88888888-7-7--|
D|-88888888-1010101010101010-00000000-77777777-88888888-7-7--|

Verso
"se, se, se"
e|---------------------------------|
B|---------------------------------|
G|-7------7------------------------|
D|-x------x-----88888888-55555555--|
A|-5------5-----88888888-55555555--|
D|-0------0-----88888888-55555555--|

Riff antes del ultimo coro
e|-----------------------------------------------------|
B|-----------------------------------------------------|
G|-----------------------------------------------------|
D|-00-----5-------------3-3--00-----5------------------|
A|-00-0h3---3p0-3-0h3p0------00-0h3---3p0-3-0h3p0------|
D|-00------------------------00-------------------3-5--|

| /  slide up
| \  slide down
| h  hammer-on
| p  pull-off
| ~  vibrato
| +  harmonic
| x  Mute note
===============================================================================
Добавлено: 06.07.2012
Другие материалы по этой песне:

Страница создана 03.03.2012
http://primanota.ru/division-minuscula/muriendo-en-un-simulacro-chords.htm
Привет, Гость.
Предлагаем пройти революционный курс по гитаре.
Подарок от PrimaNota.Ru, забирай!