PrimaNota.ru - самый крупный в мире бесплатный архив песенных текстов, аккордов, табулатур и нот


Division Minuscula - Hot Road - таба, видео

Регистрация Запомнить меня
Войти через:  Facebook Google Twitter Vk Yandex Mail.ru

Division Minuscula - Hot Road - таба, видео

Печатать
Просмотров: 117
BUENO ESTA ROLA ESTA ALGO CHIDA Y LA DECIDI SACAR POR MIS AMIGOS
FRANCISCO Y MONICA QUE LES GUSTA

 INTRO "YA ENSENDIDO EL MOTOR..." GUITARRA 2
E|-------------------------|
B|-------------------------|
G|-------------------------|
D|-------------------------|X2
A|-------------------------|
E|-/8-8-8-8-8-8-8-8-8------|

  DESPUES "ESTO ES ALGO QUE NOS COLSIERNE A LOS 2"
E|-----------------------------------------|
B|-----------------------------------------|
G|-----------------------------------------|
D|-555-555-55-555--------------------------|X2
A|-555-555-55-555--------------------------|
E|-333-333-33-333--------------------------|

 "Y AUN QUE SOY TAN LISTO..."
E|-----------------------------------------|
B|-----------------------------------------|
G|-----------------------------------------|
D|----10-10-10-10-10-10-10-10--------------|X2
A|----10-10-10-10-10-10-10-10--------------|
E|-/8--------------------------------------|


"SALTAR AHORA MISMO" GUIATARA 1
E|-----------------------------------------|
B|-----------------------------------------|
G|-----------------------------------------|
D|-555-555-55-555--------------------------|X2
A|-555-555-55-555--------------------------|
E|-333-333-33-333--------------------------|

 GUITARRA 1
E|---------------------------|
B|---------------------------|
G|----7-9---7-9---777-9------|
D|--9-----9-----9------------|X2
A|---------------------------|
E|---------------------------|

  "NO ES LA PRIMERA..."
E|-------------------------------|
B|-------------------------------|
G|-------------------------------|
D|--9999--11111111--5555--5555---|X2
A|--9999--11111111--5555--5555---|
E|--7777--9-9-9-9---3333--3333---|

  "Y ESTE ES EL MOMENTO..." GUITARRA 2
E|-----------------------------------------------------|
B|-----------------------------------------------------|
G|-----------------------------------------------------|
D|999999999-111111111111111111--555555555555555555-----|X4
A|999999999-111111111111111111--555555555555555555-----|
E|777777777-9-9-9-9-9-9-9-9-9---333333333333333333-----|

 GUIATARRA 1
E|---------  -----------  --------|
B|---------  ----10-----  --------|
G|---9-7---  -------9---  ---9-7--|
D|-9-------X8--9--------X4-9------|X4
A|---------  -----------  --------|
E|---------  -----------  --------|

E|----------------------------------|
B|----------------------------------|
G|----------------------------------|
D|-555-55555-555-55555--------------|X2
A|-555-55555-555-55555--------------|
E|-333-33333-333-33333--------------|


ALLI SE ACABA DUDAS O SUGERENCIAS ALLI ESTA MI CORREO
Добавлено: 28.04.2012
Другие материалы по этой песне:
  • Аккорды и текст

Страница создана 28.04.2012
http://primanota.ru/division-minuscula/hot-road-chords.htm
Привет, Гость.
Предлагаем пройти революционный курс по гитаре.
Подарок от PrimaNota.Ru, забирай!