PrimaNota.ru - самый крупный в мире бесплатный архив песенных текстов, аккордов, табулатур и нот


Dividing The Silence - Fallen Memories - таба, видео

Регистрация Запомнить меня
Войти через:  Facebook Google Twitter Vk Yandex Mail.ru

Dividing The Silence - Fallen Memories - таба, видео

Печатать
Просмотров: 73
Fallen Memories
Dividing The Silence
Scriptures
Drop C- CGCFAD

http://www.facebook.com/dividingthesilence
Label:Rising Records

Owen Evans Guitar part's Only.
A lot of people have been asking for Tab for this song, so here you go guys!




-Intro-
D||------------------------------------------------------------------------||
A||------------------------------------------------------------------------||
F||------------------------------------------------------------------------||
C||------------------------------------------------------------5p3p2-------||
G||-5h7------------8-7-5-7-5-----------------------------2h3p2-------5p3p2-||
C||-----000-000-000----------8-7-5-3h5-000-000-000--2h3h5------------------||
        ... ... ...                    ... ... ...
 
D||------------------------------------------------------------------------||
A||------------------------------------------------------------------------||
F||------------------------------------------------------------------------||
C||------------------------------------------------------------------------||
G||-5p7------------8-7-5-7-5---------777-88888---121212-101010101010-------||
C||-----000-000-000----------8-7-5-----------------------------------------||
        ... ... ...                    

Verse 1

D||------------------------------------------------------------------------||
A||------------------------------------------------------------------------||
F||------------------------------------------------------------------------||
C||------------------------------------------------------------5p3p2-------||
G||-5h7------------8-7-5-7-5-----------------------------2h3p2-------5p3p2-||
C||-----000-000-000----------8-7-5-3h5-000-000-000--2h3h5------------------||
        ... ... ...                    ... ... ...
 
D||------------------------------------------------------------------------||
A||------------------------------------------------------------------------||
F||------------------------------------------------------------------------||
C||------------------------------------------------------------------------||
G||-5h7------------8-7-5-7-5---------777-88888---121212-101010101010-------||
C||-----000-000-000----------8-7-5-----------------------------------------||
        ... ... ...
D||------------------------------------------------------------------------||
A||------------------------------------------------------------------------||
F||------------------------------------------------------------------------||
C||-0---------121212-101010----8-------------------------------------------||
G||-0---------------------- 88-8---------121212-101010-88------------------||
C||-0-000-000------------------8-888-888-----------------------------------||
      ... ...                    ... ...

D||------------------------------------------------------------------------||
A||------------------------------------------------------------------------||
F||------------------------------------------------------------------------||
C||-5---------8-7-5-7-5--------3--33-3/5---0-0-----------------------------||
G||-5-------------------8-7-5--3--33-3/5---0-0-----------------------------||
C||-5-555-555------------------3--33-3/5---0-0-----------------------------||
      ... ...                     ..       . .

D||------------------------------------------------------------------------||
A||------------------------------------------------------------------------||
F||------------------------------------------------------------------------||
C||-0---------121212-101010----8-------------------------------------------||
G||-0---------------------- 88-8---------121212-101010-88------------------||
C||-0-000-000------------------8-888-888-----------------------------------||
      ... ...                    ... ...

D||------------------------------------------------------------------------||
A||------------------------------------------------------------------------||
F||------------------------------------------------------------------------||
C||-5---------8-7-5-7-5--------3--33-3/5---0-0-----------------------------||
G||-5-------------------8-7-5--3--33-3/5---0-0-----------------------------||
C||-5-555-555------------------3--33-3/5---0-0-----------------------------||
      ... ...                     ..       . .



Chorus x 2

D||-1010101010101010-1010101010101010--------------------------------------||
A||-1010101010101010-1010101010101010--------------------------------------||
F||-1010101010101010-1010101010101010--------------------------------------||
C||-1212121212121212-1212121212121212-1414141414141414-1212121212121212----||
G||-1212121212121212-1212121212121212-1010101010101010-1010101010101010----||
C||-----------------------------------1010101010101010-1010101010101010----||
                         

D||------------------------------------------------------------------------||
A||------------------------------------------------------------------------||
F||---------------------------1010101010101010-99999999--------------------||
C||-88888888-1010101010101010----------------------------------------------||
G||-88888888-8-8-8-8-8-8-8-8--8-8-8-8-8-8-8-8--77777777--------------------||
C||-88888888-8-8-8-8-8-8-8-8-----------------------------------------------||
      


Verse(No Vocals)


D||------------------------------------------------------------------------||
A||------------------------------------------------------------------------||
F||------------------------------------------------------------------------||
C||------------------------------------------------------------5p3p2-------||
G||-5h7------------8-7-5-7-5-----------------------------2h3p2-------5p3p2-||
C||-----000-000-000----------8-7-5-3h5-000-000-000--2h3h5------------------||
        ... ... ...                    ... ... ...
 
D||------------------------------------------------------------------------||
A||------------------------------------------------------------------------||
F||------------------------------------------------------------------------||
C||------------------------------------------------------------------------||
G||-5h7------------8-7-5-7-5---------777-88888---121212-101010101010-------||
C||-----000-000-000----------8-7-5-----------------------------------------||
        ... ... ...

Solo(Owen)
             T2 T3 T2          T3  T3 T2          T3 T2           T3
D||-13h15h18-20h22p20p18p15p13---------------------------------------------||
A||------------------------------------------------------------------------||
F||----------------------------19--19p17p15p12p10-19p17p15p12p10-----------||
C||------------------------------------------------------------------------||
G||---------------------------------------------------------------17-------||
C||------------------------------------------------------------------------||
                            
     T3 T2         T3                                        PH
D||------------------------------------------------------------------------||
A||------------------------------------------------------------------------||
F||----------------------------------------------------9h10--10------------||
C||---------------------------------10/12/10--9-10-12----------------------||
G||--17p15p13p10p8-15p13p10p8---88-----------------------------------------||
C||------------------------------------------------------------------------||
                                .. 

Play second part of intro behind 2nd Solo. 



Verse (Vocals Come Back In)
D||------------------------------------------------------------------------||
A||------------------------------------------------------------------------||
F||------------------------------------------------------------------------||
C||-0---------121212-101010----8-------------------------------------------||
G||-0---------------------- 88-8---------121212-101010-88------------------||
C||-0-000-000------------------8-888-888-----------------------------------||
      ... ...                    ... ...

D||------------------------------------------------------------------------||
A||------------------------------------------------------------------------||
F||------------------------------------------------------------------------||
C||-5---------8-7-5-7-5--------3--33-3/5---0-0-----------------------------||
G||-5-------------------8-7-5--3--33-3/5---0-0-----------------------------||
C||-5-555-555------------------3--33-3/5---0-0-----------------------------||
      ... ...                     ..       . .

D||------------------------------------------------------------------------||
A||------------------------------------------------------------------------||
F||------------------------------------------------------------------------||
C||-0---------121212-101010----8-------------------------------------------||
G||-0---------------------- 88-8---------121212-101010-88------------------||
C||-0-000-000------------------8-888-888-----------------------------------||
      ... ...                    ... ...

D||------------------------------------------------------------------------||
A||------------------------------------------------------------------------||
F||------------------------------------------------------------------------||
C||-5---------8-7-5-7-5--------3--33-3/5---0-0-----------------------------||
G||-5-------------------8-7-5--3--33-3/5---0-0-----------------------------||
C||-5-555-555------------------3--33-3/5---0-0-----------------------------||
      ... ...                     ..       . .



Chorus x2

D||-1010101010101010-1010101010101010--------------------------------------||
A||-1010101010101010-1010101010101010--------------------------------------||
F||-1010101010101010-1010101010101010--------------------------------------||
C||-1212121212121212-1212121212121212-1414141414141414-1212121212121212----||
G||-1212121212121212-1212121212121212-1010101010101010-1010101010101010----||
C||-----------------------------------1010101010101010-1010101010101010----||
                         

D||------------------------------------------------------------------------||
A||------------------------------------------------------------------------||
F||---------------------------1010101010101010-99999999--------------------||
C||-88888888-1010101010101010----------------------------------------------||
G||-88888888-8-8-8-8-8-8-8-8--8-8-8-8-8-8-8-8--77777777--------------------||
C||-88888888-8-8-8-8-8-8-8-8-----------------------------------------------||



Breakdown section
                                      ( Play this section 4 times)
D||------------------------------------------------------------------------||
A||------------------------------------------------------------------------||
F||------------------------------------------------------------------------||
C||------------------------------------------------------------------------||
G||-------3----------------------------1-1-1-1-11--11-1-1-1----------------||
C||--3b-0---5b-0-1b--0--000-000-000----0-0-0-0-00--00-0-0-0----------------||
               .     .  ... ... ...    . . . . ..  .. . . .

    (Play this section 4 times               )
D||------------------------------------------------------------------------||
A||------------------------------------------------------------------------||
F||------------------------------------------------------------------------||
C||----------------------------------------------------5----8-10-----------||
G||-----------------------------------1----------------5----8-10-----------||
C||-000-000-000-000-000--0----4p1p0h1---4p1p0----------5----8-10-----------||
   


Chorus x 2

D||-1010101010101010-1010101010101010--------------------------------------||
A||-1010101010101010-1010101010101010--------------------------------------||
F||-1010101010101010-1010101010101010--------------------------------------||
C||-1212121212121212-1212121212121212-1414141414141414-1212121212121212----||
G||-1212121212121212-1212121212121212-1010101010101010-1010101010101010----||
C||-----------------------------------1010101010101010-1010101010101010----||
                         

D||------------------------------------------------------------------------||
A||------------------------------------------------------------------------||
F||---------------------------1010101010101010-99999999--------------------||
C||-88888888-1010101010101010----------------------------------------------||
G||-88888888-8-8-8-8-8-8-8-8--8-8-8-8-8-8-8-8--77777777--------------------||
C||-88888888-8-8-8-8-8-8-8-8-----------------------------------------------||


Chorus x2 

D||-1010-------------------------------------------------------------------||
A||-1010--------10---------------------------------------------------------||
F||-1010-----------10------------------------------------------------------||
C||-1212--------------12---1414---------14---------88-----10---------------||
G||-1212-121212------------1010------------10------88--------8-------------||
C||------------------------1010--101010-------10---88-888------8-----------||
         . . .                   . . .                ...
          
                                         (On last repeat ring on this chord)
D||------------------------------------------------------------------------||
A||------------------------------------------------------------------------||
F||-101010999---------------------------------------------7----------------||
C||------------------------------------------------------------------------||
G||-8-8-8-777---------------------------------------------5----------------||
C||------------------------------------------------------------------------||




Key
Tuning - Drop C
h = Hammer On
p = Pull Off
T2 = Tap with second finger
T3= Tap with Third finger
. = Palm Mute
PH = Pinched Harmonic
b = Bend
Добавлено: 28.06.2013
Другие материалы по этой песне:
  • Аккорды и текст

Страница создана 28.06.2013
http://primanota.ru/dividing-the-silence/fallen-memories-chords.htm
Привет, Гость.
Предлагаем пройти революционный курс по гитаре.
Подарок от PrimaNota.Ru, забирай!