PrimaNota.ru - самый крупный в мире бесплатный архив песенных текстов, аккордов, табулатур и нот


Divididos - Salir A Comprar - таба, бас-таба, видео

Регистрация Запомнить меня
Войти через:  Facebook Google Twitter Vk Yandex Mail.ru

Divididos - Salir A Comprar - таба, бас-таба, видео

Печатать
Просмотров: 72
Уроки эстрадного вокала в Санкт-Петербурге
Авторы музыки: Ricardo Mollo, Diego Arnedo, Federico Gil Solá
Авторы текста: Ricardo Mollo, Diego Arnedo, Federico Gil Solá
Intro:

e |-----------------7-7---------------------------------7-7-----|
B |-----------------7-7---------------------------------7-7-----|
G |-----------------7-7---------------------------------7-7-----|
D |--------------0-------------0---0h2h0-------------0----------|
A |12/(sube)-0h2--2------2-2-2---2-------2h0-----0h2--2---------|
E |------------------------------------------3-0----------------|

e |-------------------------------------7-7----------------------|
B |-------------------------------------7-7----------------------|
G |-----------2h0--------------2-0-2-2--7-7----------------------|
D |-----0-0-------2h0---------------------------0-0---2h0--------|
A |-2-2-----2---------2h0-------------------2-2-----2-----2h0----|
E |----------------------3-0---------------------------------3-0-|

e |---------7---------------------------------------------------|
B |---------7---------------------------------------------------|
G |-2-0-2-2-7------------2h0------------------------------------|
D |---------------0-0--------2h0--------------------------------|
A |-----------2-2-----2----------2h0----------------------------|
E |----------------------------------3-0------------------------|
   Vegetariano el inmigrante es,           de facto
e |---------------------------------7-7--------------------------|
B |--5------------------------------7-7--------------5-----------|
G |--7------------------------------7-7--------------7-----------|
D |--6-----------------------------------------------6-----------|
A |--7----------------------2h0-2-----------2h0-2----7-5s7-7-5-7-|
E |--------------------------------------------------------------|

                    bolsillo canta    en el pañal,
                            (* )
e |------------------------------7-7-----------------------------|
B |--------------------5---------7-7--------5--------------------|
G |--------------------7---------7-7--------7----2h0-------------|
D |7h5-----------------6--------------------6--------2h0---------|
A |----7-5-7-7---------7--------------------7------------2h0-----|
E |----------------------------------------------------------3-0-|

*nota: rasguido uno hacia abajo y el otro hacia arriba

    Meado  (*)
e |------------------------8------------------------------------|
B |----------5-5----5-5-5--8------------------------------------|
G |----------7-7----7-7-7--8------------------------------------|
D |----------6-6----6-6-6---------------------------------------|
A |----------7-7----7-7-7---------------------------------------|
E |-------------------------------------------------------------|

justicia y miedo, asao y arroz, pa' adentro
te dejo el cuerpo en esta curda

(sigue haciendo arreglos y acordes parecidos a lo
 anterior)

(intro)

Ya sabemos somos tres
el otro viene despues
slip de lider, pero virtual, gambeta
volcar de pibe y al moreton, de grande,
un refusilo, cochero y hansen
no estoy solo,   puedo salir a comprar

e |------------------8/9-----|
B |-5----------------7/8-----|
G |-7----------------7/8-----|
D |-6------------------------|
A |-7------------------------|
E |--------------------------|


Fm E#m Em (x2)

e |-15-15-15--------------------15-|
B |-14-14-14--13/14-14-14-14-14-14-|
G |-----------13/14-14-14-14-14----|
D |--------------------------------|
A |--------------------------------|
E |--------------------------------|

Fue una epoca atenti che, chopera y pizarron
no hay mas postre pal variete. se dio pensando
no hay caramelo para la sed, hasta mañana
roquero trunco no sale sin

no estoy solo, puedo salir a comprar
salir a comprar.

Fm E#m Em (x2)

Salir a comprar
E7/9 (rasguido rapido+arreglo)
(arreglo)
e |-7-7-7-7--6-6-6----5h7-------------------------------|
B |-6-6-6-6--5-5-5--------5-7---------------------------|
G |-7-7-7-7--6-6-6--------------------------------------|
D |-----------------------------------------------------|
A |-----------------------------------------------------|
E |-----------------------------------------------------|

Ahora es igual pero estilo funky, hace E7/9 y al final sube
medio tono... el corte Fm E#m Em [x2]  es igual lo unico q dps
Hace E7/9 marcando rapido primero la 5ta y la 4ta cuerda
y dps la 3era y la 2da....

Y al final

E7/9   B7
Salir     salir a comprar E7/9
Добавлено: 09.06.2016
Другие материалы по этой песне:
  • Аккорды и текст

Страница создана 16.10.2014
http://primanota.ru/divididos/salir-a-comprar-chords.htm
Привет, Гость.
Предлагаем пройти революционный курс по гитаре.
Подарок от PrimaNota.Ru, забирай!