PrimaNota.ru - самый крупный в мире бесплатный архив песенных текстов, аккордов, табулатур и нот


Divided By Friday - Oh Pacific So Specific - таба, видео

Регистрация Запомнить меня
Войти через:  Facebook Google Twitter Vk Yandex Mail.ru

Divided By Friday - Oh Pacific So Specific - таба, видео

Печатать
Просмотров: 80
INTRO/VERSE
(Acoustic)
E|-7-6-11-6-|
B|-9-7-12-7-|
G|-8-6-11-6-|
D|----------|
A|----------|
D|----------|

PRE-CHORUS (part 1)

Electric 2
Clean
E|--------------------|
B|--------------------|
G|--------------------|
D|-14-9-6-9--14-9-6-4-|
A|-14-9-6-9--14-9-6-4-|
D|-14-9-6-9--14-9-6-4-|

PRE-CHORUS (part 2)

Electric 2
(palm mute)
E|-----|
B|-----|
G|-----|
D|-2-4-|
A|-2-4-|
D|-2-4-|

CHORUS (part 1)

Electric 1

E|----------|
B|----------|
G|-11-6-8-9-|
D|-x--x-x-x-|
A|-9--4-6-7-|
D|----------|

Electric 2

E|---------|
B|---------|
G|---------|
D|-9-4-6-2-|
A|-9-4-6-2-|
D|-9-4-6-2-|

CHORUS (part 2) starts and "and your parents will hate me"

Electric 1 

E|----------|
B|----------|
G|-11-6-8-6-|
D|-x--x-x-x-|
A|-9--4-6-4-|
D|----------|

Electric 2

E|---------|
B|---------|
G|---------|
D|-6-4-2-4-|
A|-6-4-2-4-|
D|-6-4-2-4-|

VERSE

Electric 1
Clean Distortion
E|-7-6-11-6-|
B|-9-7-12-7-|
G|-8-6-11-6-|
D|----------|
A|----------|
D|----------|

PRE-CHORUS (part 1+2)

CHORUS

BRIDGE (part 1)

Acoustic

E|-7-6-11-6-|
B|-9-7-12-7-|
G|-8-6-11-6-|
D|----------|
A|----------|
D|----------|

BRIDGE (part 2)

Electric 2
(palm mute)
E|---------|
B|---------|
G|---------|
D|-6-4-9-4-|
A|-6-4-9-4-|
D|-6-4-9-4-|

BRIDGE (part 3)

Electric 1
(listen to song for when to play)
E|----------------|
B|----------------|
G|-13\11----16\15-|
D|-x--x-----x--x--|
A|-11\9-----14\13-|
D|----------------|

Electric 2

E|------|
B|------|
G|------|
D|-6666-| x2
A|-6666-|
D|-6666-|

CHORUS VARIATION

(E2 same, match E1 with vocals, basically the same)

Добавлено: 13.08.2013
Другие материалы по этой песне:
  • Аккорды и текст

Страница создана 13.08.2013
http://primanota.ru/divided-by-friday/oh-pacific-so-specific-chords.htm
Привет, Гость.
Предлагаем пройти революционный курс по гитаре.
Подарок от PrimaNota.Ru, забирай!