PrimaNota.ru - самый крупный в мире бесплатный архив песенных текстов, аккордов, табулатур и нот


Divide - Dollface - бас-таба, видео

Регистрация Запомнить меня
Войти через:  Facebook Google Twitter Vk Yandex Mail.ru

Divide - Dollface - бас-таба, видео

Печатать
Просмотров: 62

   INTRO
G|----------------------------------------------------------------------------|
D|----------------------------------------------------------------------------|
A|--3/5---------------------5--5--5--5--5--5--5--5--5--5--5--5--5--5--5--5----|
E|----------------------------------------------------------------------------|



G|--------------------------------------------------------------------------|
D|--------------------------------------------------------------------------|
A|--5--5--5--5--5--3--3--3--------------5--5--5--5--5--1--1--1--3--3--3--3--|
E|--------------------------3--3--3--3--------------------------------------|



G|--------------------------------------|
D|--------------------------------------|
A|--5--5--5--5--5--1--1--1--3--3--3--3--|
E|--------------------------------------|




G|---------------------------------------|
D|---------------------------------------|
A|---5--5--5--5--5--1--------3--3--3--3--|
E|---------------------------------------|

VERSE 1:

G|--------------------------------------------------|
D|--------------------------------------------------| (Repeat as many times
A|--5--5--5--0--3--3--3--0--1--1--1--0--3--3--3--0--|  until next below
E|--------------------------------------------------| that leads to prechorus)




G|-----------------------------------------------|
D|-----------------------------------------------|
A|--5--5--5--0--3--3--3--0--1--------3--3--3--3--|
E|-----------------------------------------------|

PRE-CHORUS:

G|--------------------------------------------------------------------------|
D|--------------------------------------3--3--3--3--3--3--------------------|
A|--5--5--5--5--5--0--1--1--1--1--1--1--------------------3--3--3--3--3--3--|
E|--------------------------------------------------------------------------|

G|-----------------------------------------------------------------|
D|--------------------------------------3--3--3--3--3--3--3--3-----|
A|--5--5--5--5--5--0--1--1--1--1--1--1--------------------------3--|
E|-----------------------------------------------------------------|

CHORUS:


G|------------------------------------------------------------|
D|------------------------------------------------------------|
A|-----------5--5--8--8--10--8-----------5--5--5--3--3--3--3--|
E|--3--6--6---------------------3--6--6-----------------------|

G|----------------------------------------------------------------------|
D|----------------------------------------------------------------------|
A|-----------5--5--8--8--10--8--------------5--5--5--3------3--3--3--3--|
E|--3--6--6---------------------3--6--6--6------------------------------|



REPEAT VERSES ETC..


SOLO:

G|-----------------------------------------------|
D|-----------------------------------------------|
A|--------3--------------3--3--3--3--3--3--3--3--|
E|--3--6-----------3--6--------------------------|

G|--------------------------------------------------|
D|--------------------------------------------------|  (REPEAT AS MANY TIMES
A|--5--5--3--5--3--3--5--3--1--1--3--1--3--3--5--3--|        NECESSARY)
E|--------------------------------------------------|

ending of solo before repeating pre-chorus:

G|-----------------------------------------------|
D|-----------------------------------------------|
A|--5--5--3--5--3--3--5--3--1--------3--3--3--3--|
E|-----------------------------------------------|


REPEAT PRE-CHORUS
REPEAT CHORUS
REPEAT CHORUS AGAIN (WITHOUT VOCALS)


Tabs credit: Tommie Sissons

LISTEN TO THE BAND!: https://www.facebook.com/Divide.officialband?fref=ts
Добавлено: 30.07.2013
Другие материалы по этой песне:
  • Аккорды и текст

Страница создана 30.07.2013
http://primanota.ru/divide/dollface-chords.htm
Привет, Гость.
Предлагаем пройти революционный курс по гитаре.
Подарок от PrimaNota.Ru, забирай!