PrimaNota.ru - самый крупный в мире бесплатный архив песенных текстов, аккордов, табулатур и нот


Diverse Link - Days Gone By - таба, видео

Регистрация Запомнить меня
Войти через:  Facebook Google Twitter Vk Yandex Mail.ru

Diverse Link - Days Gone By - таба, видео

Печатать
Просмотров: 108
Уроки эстрадного вокала в Санкт-Петербурге
Artist: Diverse Link
Title: Days Gone By
Tabbed by: Adam Bowling
 
 
E------------------------------------7-------------6--------
B--------7-------------------------8---8---------8---8------
G------7---7-----------6---------7-------7-----7-------7----
D----7-------7-------7---7-----5-------------5--------------
A--5---------------7-------7--------------------------------
E----------------5------------------------------------------
 
 
E------------------------7x7x7x7x---x6x6--------------------
B--7x7x7x7x--------------8x8x8x8x---x8x8--------------------
G--7x7x7x7x---6x6x6x6x---7x7x7x7x---x7x7--------------------
D--7x7x7x7x---7x7x7x7x--------------------------------------
A--5x5x5x5x---7x7x7x7x--------------------------------------
E-------------5x5x5x5x--------------------------------------


     
Добавлено: 30.11.2013
Другие материалы по этой песне:
  • Аккорды и текст

Страница создана 30.11.2013
http://primanota.ru/diverse-link/days-gone-by-chords.htm
Привет, Гость.
Предлагаем пройти революционный курс по гитаре.
Подарок от PrimaNota.Ru, забирай!