PrimaNota.ru - самый крупный в мире бесплатный архив песенных текстов, аккордов, табулатур и нот


Disturbed - Stricken1 - таба, видео

Регистрация Запомнить меня
Войти через:  Facebook Google Twitter Vk Yandex Mail.ru

Disturbed - Stricken1 - таба, видео

Печатать
Просмотров: 156


Played in Drop D or reg. with dist. This is played in reg.     x=palm mute

Intro

e|----------------------------|
B|----------------------------|
G|----------------------------|
D|0-3-0--8-7--2-3--3-5--3-5-0-|
A|0-3-0--8-7--2-3--3-5--3-5-0-|
E|0-3-0--8-7--2-3--3-5--3-5-0-|

e|----------------------------|
B|----------------------------|
G|----------------------------|
D|0-3-0--8-7--2-3--3-5--3-3-0-|
A|0-3-0--8-7--2-3--3-5--3-3-0-|
E|0-3-0--8-7--2-3--3-5--3-3-0-|


e|----------------------------------------------|
B|----------------------------------------------|
G|----------------------------------------------|
D|0-3-0--8-7--2-3--3-5--3-5-33333333--77777777--|
A|0-3-0--8-7--2-3--3-5--3-5-33333333--77777777--|
E|0-3-0--8-7--2-3--3-5--3-5-33333333--77777777--|


Verse

e|-------------------------|
B|-------------------------|
G|-------------------------|
D|-------------------------|
A|x-x--x-x--x-x--x-x--x-3-5|
E|x-x--x-x--x-x--x-x--x-3-5|


e|------------------------------------------------
B|------------------------------------------------
G|------------------------------------------------
D|------------------------------------------------
A|x-x--x-x--x--x-3-5-3-5--x-x--x-x--x-x--x-x-x-3-5
E|x-x--x-x--x--x-3-5-3-5--x-x--x-x--x-x--x-x-x-3-5

e|-------------------------|
B|-------------------------|
G|-------------------------|
D|3333333--7777777---------|
A|3333333--7777777---------|
E|3333333--7777777---------|





Добавлено: 04.08.2013
Другие материалы по этой песне:
  • Аккорды и текст

Страница создана 04.08.2013
http://primanota.ru/disturbed/stricken1-chords.htm
Привет, Гость.
Предлагаем пройти революционный курс по гитаре.
Подарок от PrimaNota.Ru, забирай!