PrimaNota.ru - самый крупный в мире бесплатный архив песенных текстов, аккордов, табулатур и нот


Disturbed - Sickness - текст песни, таба, видео

Регистрация Запомнить меня
Войти через:  Facebook Google Twitter Vk Yandex Mail.ru

Disturbed - Sickness - текст песни, таба, видео

Печатать
Просмотров: 176
Уроки эстрадного вокала в Санкт-Петербурге
Band- Disturbed
Album- The Sickness

1.Voices
2.The Game
3.Stupify
4.Down With The Sickness
5.Violence Fetish
6.Fear
7.Numb
8.Want
9.Conflict
10.Shout 2000
11.Droppin' Plates
12.Meaning Of Life

1.VOICES

Clean
Intro x 4
|----------------|
|----------------|
|----------------|
|11----9-11----9-|
|9-----9-10----10|
|9-----9-9-----9-|

main riff x 2
|------------------------|------------------------|
|------------------------|------------------------|
|----------------5-5-5-5-|----------------10~~~~~~|
|7h9-7h9-7h9-7h9-3-3-3-3-|7h9-7h9-7h9-7h9-8~~~~~~~|
|7h9-7h9-7h9-7h9-3-3-3-3-|7h9-7h9-7h9-7h9-8~~~~~~~|
|7h9-7h9-7h9-7h9-3-3-3-3-|7h9-7h9-7h9-7h9-8~~~~~~~|


|------------------------|------------------------|
|------------------------|------------------------|
|----------------5-5-5-5-|----------------x-x-x-x-|
|7h9-7h9-7h9-7h9-3-3-3-3-|7h9-7h9-7h9-7h9-x-x-x-x-|
|7h9-7h9-7h9-7h9-3-3-3-3-|7h9-7h9-7h9-7h9-x-x-x-x-|
|7h9-7h9-7h9-7h9-3-3-3-3-|7h9-7h9-7h9-7h9-x-x-x-x-|

verse x 4...(The last part has some harmonics. I don't know???)
|------------------------|------------------------|
|------------------------|------------------------|
|------------------------|------------------------|
|------------------------|------------------------|
|0h2-0h2-0h2-0h2---------|0h2-0h2-0h2-0h2-8~~~~~~~|
|----------------3-3-3-3-|------------------------|

chorus x 4
|----------------|----------------|
|----------------|----------------|
|----------------|----------------|
|4---4-444-7-7---|0---0-007h9-9-9-|
|4---4-444-7-7---|0---0-007h9-9-9-|
|4---4-444-7-7---|0---0-007h9-9-9-|

Bridge  x 3                  last part (4th time)
|-------------------|	|---------------------|
|-------------------|	|---------------------|
|-------------------|	|-----------10--10--10|
|9---7-10---4---5-7-|	|9---7-10---10--10--10|
|9---7-10---4---5-7-|	|9---7-10---8---8--8--|
|9---7-10---4---5-7-|	|9---7-10---8---8--8--|

|-----------------------------|--------------------------|
|-----------------------------|--------------------------|
|-----------------------------|--------------------------|
|-----------------------------|--------------------------|
|-----------------------------|-----------------------8--|
|9--12p9-10p9-12p9-10p9-10h12-|9--12p9-10p9-12p9-10p9----|

Bridge  (b)x 3
|-----------------------------|--------------------------|
|-----------------------------|--------------------------|
|-----------------------------|-----------------------10-|
|9--12p9-10p9-12p9-10p9-10h12-|9--12p9-10p9-12p9-10p9-10-|
|9--12p9-10p9-12p9-10p9-10h12-|9--12p9-10p9-12p9-10p9-8--|
|9--12p9-10p9-12p9-10p9-10h12-|9--12p9-10p9-12p9-10p9-8--|

Bridge (c)x 1
|-----------------------------|--------------------------|
|-----------------------------|--------------------------|
|-----------------------------|--------------------------|
|9--12p9-10p9-12p9-10p9-10h12-|9--12p9-10p9--------------|
|9--12p9-10p9-12p9-10p9-10h12-|9--12p9-10p9--------------|
|9--12p9-10p9-12p9-10p9-10h12-|9--12p9-10p9--------------|


Outro x 1
|------------------------|------------------------|
|------------------------|------------------------|
|----------------5-5-5-5-|----------------10~~~~~~|
|7h9-7h9-7h9-7h9-3-3-3-3-|7h9-7h9-7h9-7h9-8~~~~~~~|
|7h9-7h9-7h9-7h9-3-3-3-3-|7h9-7h9-7h9-7h9-8~~~~~~~|
|7h9-7h9-7h9-7h9-3-3-3-3-|7h9-7h9-7h9-7h9-8~~~~~~~|


|------------------------|------------------------|
|------------------------|------------------------|
|----------------5-5-5-5-|------------------------|
|7h9-7h9-7h9-7h9-3-3-3-3-|7h9-7h9-7h9-7h9---------|
|7h9-7h9-7h9-7h9-3-3-3-3-|7h9-7h9-7h9-7h9---------|
|7h9-7h9-7h9-7h9-3-3-3-3-|7h9-7h9-7h9-7h9---------|

2.THE GAME

Intro Some keyboards and samples

Main riff/pre-chorus (0:36)
--------------------------------------------------------------------------|
--------------------------------------------------------------------------|
--------------------------------------------------------------------------|
--0-xxx-0-xxx-1-xx-----xxx-3h5-xx-6p5p3-0-xxx-0-xxx-1-xx-----xxx-3h5--6---|
--0-xxx-0-xxx-1-xx-3h5-xxx-----xx-------0-xxx-0-xxx-1-xx-3h5-xxx------6---|
--0-xxx-0-xxx-1-xx-----xxx-----xx-------0-xxx-0-xxx-1-xx-----xxx------6---|

Verse       Fill
------------|-------------|
------------|-------------|
------------|-------------|
--0~~~~~----|----/7^(10)--|
--0~~~~~----|-------------|
--0~~~~~----|-------------|

Pre-chorus
--------------------------------------------------------------------------|
--------------------------------------------------------------------------|
--------------------------------------------------------------------------|
--0-xxx-0-xxx-1-xx-----xxx-3h5-xx-6p5p3-0-xxx-0-xxx-1-xx-----xxx-3h5--6---|
--0-xxx-0-xxx-1-xx-3h5-xxx-----xx-------0-xxx-0-xxx-1-xx-3h5-xxx------6---|
--0-xxx-0-xxx-1-xx-----xxx-----xx-------0-xxx-0-xxx-1-xx-----xxx------6---|

Chorus
--------------------|------------------------|
--------------------|------------------------|
--2--2-2--222-------|---------------------2--|
--0--0-0--000-------|--0-xxx-0-xx-5-------0--|
--0--0-0--000-------|--0-xxx-0-xx-1----------|
--0--0-0--000-------|--0-xxx-0-xx-1----------|

Verse
------------|
------------|
------------|
--0~~~~~----|
--0~~~~~----|
--0~~~~~----|

Pre-chorus
--------------------------------------------------------------------------|
--------------------------------------------------------------------------|
--------------------------------------------------------------------------|
--0-xxx-0-xxx-1-xx-----xxx-3h5-xx-6p5p3-0-xxx-0-xxx-1-xx-----xxx-3h5--6---|
--0-xxx-0-xxx-1-xx-3h5-xxx-----xx-------0-xxx-0-xxx-1-xx-3h5-xxx------6---|
--0-xxx-0-xxx-1-xx-----xxx-----xx-------0-xxx-0-xxx-1-xx-----xxx------6---|

Chorus              Fill
--------------------|-----|
--------------------|-----|
--2--2-2--222-------|-----|
--0--0-0--000-------|--0--|
--0--0-0--000-------|--0--|
--0--0-0--000-------|--0--|

Bridge
-------------------------------------------|---------------------------------------|
-----15^(16)-------------15^(16)-----------|-----15^(16)-------------15^(16)----6--|
------------------------------------7^(8)--|------------------------------------5--|
-------------------------------------------|---------------------------------------|
-------------------------------------------|---------------------------------------|
--0-----------0h1-0h1-0----------0---------|--0-----------0h1-0h1-0----------0-----|

-------------------------------------------|---------------------------------------|
-----15^(16)-------------15^(16)-----------|-----15^(16)-------------15^(16)----6--|
------------------------------------7^(8)--|------------------------------------5--|
-------------------------------------------|---------------------------------------|
--0-----------0h1-0h1-0----------0---------|--0-----------0h1-0h1-0----------------|
--0-----------0h1-0h1-0----------0---------|--0-----------0h1-0h1-0----------0-----|

------------|
------------|
------------|
--0--1-1-0--|
--0--1-1-0--|
--0--1-1-0--|

Chorus
--------------------|-----|
--------------------|-----|
--2--2-2--222-------|-----|
--0--0-0--000-------|--0--|
--0--0-0--000-------|--0--|
--0--0-0--000-------|--0--|

Ending
------------------------|------------------------|
------------------------|------------------------|
------------------------|------------------------|
--0------------------0--|--0--0-0-0-000-0-0-0-0--|
--0--0-0-0-000-0-0-0-0--|--0--0-0-0-000-0-0-0-0--|
--0--0-0-0-000-0-0-0-0--|--0--0-0-0-000-0-0-0-0--|
     * * * *** * * *

3.STUPIFY

Intro/Chorus
D|--------------------------------|--------------------------------|
A|--------------------------------|--------------------------------|
F|--------------------------------|--------------------------------|
C|8-----0-----0-----0-----3-------|8-----0-----0-------------------|
G|8-----0-0-0-0-----0-0-0-3-0-0-0-|8-----0-0-0-0-----0-0-0-3h6-0-0-|
C|8-----0-0-0-0-----0-0-0-3-0-0-0-|8-----0-0-0-0-----0-0-0-----0-0-|
pm      .....       .....   .....        .....       .....     ...

Verse:
D|------------------------6-6-8-8-|----------------------------------|
A|------------------6-6-6---------|------------------------4-4--3-3--|
F|--------------------------------|------------------2-2-2-----------|
C|--------------------------------|----------------------------------|
G|0-----0-----0-------------------|0-----0-----0---------------------|
C|0-----0-----0-------------------|0-----0-----0---------------------|
pm................                ..................

Fill 1:|
D|------------------------6-6-8-8-|------------------5-5-5-5-5-5-5-|
A|------------------6-6-6---------|------------------4-4-4-4-4-4-4-|
F|--------------------------------|------------------2-2-2-2-2-2-2-|
C|--------------------------------|--------------------------------|
G|0-----0-----0-------------------|0-----0-----0-------------------|
C|0-----0-----0-------------------|0-----0-----0-------------------|
pm..............                  ................................

Fill 2:
D|-------------------------------------|
A|-------------------------------------|
F|-------------------------------------|
C|------------------x-x-x-x-x-x--------|
G|0-----0-----0-----x-x-x-x-x-x--------|
C|0-----0-----0-----0-0-0-0-0-0--------|
pm....................................


Fill 3:
D|--------------------|
A|--------------------|
F|--------------------|
C|0---------(0)-------|
G|0---------(0)-------|
C|0---------(0)-------|


D|-------------------------------------------------------------------|
A|-------------------------------------------------------------------|
F|-------------------------------------------------------------------|
C|-(0)------------------------------(0)------------------------------|
G|-(0)------------------------------(0)--------------------------0-0-|
C|-(0)------------------------------(0)--------------------------0-0-|
pm                                                               ...

Verse 2:
F|--------------------------------|------------------5-5-5-5-5-5-5-|
A|--------------------------------|------------------4-4-4-4-4-4-4-|
F|--------------------------------|------------------2-2-2-2-2-2-2-|
C|--------------------------------|--------------------------------|
G|0-----0-----0-----0-------------|0-----0-----0-------------------|
C|0-----0-----0-----0-------------|0-----0-----0-------------------|
pm...................................................................


Interlude Riff: With sitar effect(egyptian Riff)
D|--------------------------------||--------------------------------|
A|*------------------------------*||--------------------------------|
F|*-----7-----------8---------8--*||------7-------------------------|
C|0-----------0-----------0-------||0-------------------------------|
G|--------------------------------||--------------------------------|
C|--------------------------------||------------0-------------------|

Bridge:
D|--------------------------------|--------------------------------|
A|--------------------------------|--------------------------------|
F|--------------------------------|--------------------------------|
C|0-----3-----0-----3-----0---1---|0-----3-----0-----3-----0---1-0-|
G|0-----3-----0-----3-----0---1---|0-----3-----0-----3-----0---1-0-|
C|0-----3-----0-----3-----0---1---|0-----3-----0-----3-----0---1-0-|

  w/wah pedal
D|--------------------------------|--------------------------------|
A|--------------------------------|--------------------------------|
F|--------------------------------|--------------------------------|
C|0-----3-----0-----3-----0---1---|0-----3-----0-----3-----0-1-1-0-|
G|0-----3-----0-----3-----0---1---|0-----3-----0-----3-----0-1-1-0-|
C|0-----3-----0-----3-----0---1---|0-----3-----0-----3-----0-1-1-0-|

Chorus to...
Outro:
D|--------------------------------|
A|--------------------------------|
F|--------------------------------|
C|------------------------1h3-----|
G|0-0---0-0---0-0---0-0-0-1h3-0-0-|
C|0-0---0-0---0-0---0-0-0-1h3-0-0-|
PM..............................

D|--------------------------------|
A|--------------------------------|
F|--------------------------------|
C|0-0---0-0---0-0---------1h3-----|
G|0-0---0-0---0-0---0-0-0-1h3-0-0-|
C|0-0---0-0---0-0---0-0-0-1h3-0-0-|
pm..............................


End with:
D|--------------------------------|
A|--------------------------------|
F|--------------------------------|
C|1-0---------1-0-----------------|
G|1-0---------1-0-----------------|
C|1-0---------1-0-----------------|

4.DOWN WITH THE SICKNESS

Intro

First part just drums
Добавлено: 16.12.2013
Другие материалы по этой песне:
  • Аккорды и текст

Страница создана 05.05.2012
http://primanota.ru/disturbed/sickness-chords.htm
Привет, Гость.
Предлагаем пройти революционный курс по гитаре.
Подарок от PrimaNota.Ru, забирай!