PrimaNota.ru - самый крупный в мире бесплатный архив песенных текстов, аккордов, табулатур и нот


Disturbed - Sacrifice - текст песни, бас-таба, видео

Регистрация Запомнить меня
Войти через:  Facebook Google Twitter Vk Yandex Mail.ru

Disturbed - Sacrifice - текст песни, бас-таба, видео

Печатать
Просмотров: 252
Уроки эстрадного вокала в Санкт-Петербурге
-------------------------------------------------------------------------------
                             Sacrifice - Disturbed
-------------------------------------------------------------------------------
Tabbed by: zoltan56

credit to songterr for sheet music/tabs 

Intro: rest for a bit
F|-----------|-----------------|-----------------|------------------|-------|
C|-----------|-----------------|-----------------|------------------|-------|
G|-----------|-----------------|-----------------|------------------|-------|
C|-1~--8-8-8-|-2-0-3-0---2-0-3-|-0---2-0-3-0---2-|-0-3-5-0---0-0-1~-|-8-8-8-|
A|-----------|-----------------|-----------------|------------------|-------|

Verse 1: X4
F|-----------------|-----------------|------------------|-------|
C|-----------------|-----------------|------------------|-------|
G|-----------------|-----------------|------------------|-------|
C|-2-0-3-0---2-0-3-|-0---2-0-3-0---2-|-0-3-5-0---0-0-1~-|-8-8-8-|
A|-----------------|-----------------|------------------|-------|

Pre Chorus:
F|-----------------|-----------------|-----------------|
C|-----------------|-----------------|-----------------|
G|-----------------|-----------------|-----------------|
C|-2-----3-----5~--|--6------5---3-5-|-2---3--2--0~--3-|
A|-----------------|-----------------|-----------------|

F|-----------------|-----------------|----------------------|
C|-----------------|-----------------|----------------------|
G|-----------------|-----------------|----------------------|
C|-2-----3-----5~--|--6------5---3-5-|-2---3--0-3-0-3-0-2---|
A|-----------------|-----------------|----------------------|

F|-----------------|-----------------|-----------------|-----------------|X2
C|-----------------|-----------------|-----------------|-----------------|X2
G|-----------------|-----------------|-----------------|-----------------|X2
C|-0-0-0-0-0-0-0-1-|-0-0-0-0-0-0-0-1-|-0-0-0-5-5-0-0-1-|-0-0-0-0-0-0-0-0-|X2
A|-----------------|-----------------|-----------------|-----------------|X2

F|-------------------|-----------------|
C|---8-7---10-12-----|-----------------|
G|-------------------|-----------------|
C|-0-----0-------0-8-|-7-10-12-0-0-1---|
A|-------------------|-----------------|

Chorus:
F|-----------------|-----------------|-----------------|-----------------|
C|-----------------|-----------------|-----------------|-----------------|
G|-3-3-3-3-3-3-3-3-|-----------------|-1-1-1-1-1-1-1-1-|-----------------|
C|-----------------|-1-1-1-1-1-1-1-1-|-----------------|-5-5-5-5-5-5-5-5-|
A|-----------------|-----------------|-----------------|-----------------|

F|-----------------|-----------------|X1|-----------------|-----------------|X2
C|-----------------|-----------------|X1|-----------------|-----------------|X2
G|-1-1-1-1-1-1-1-1-|-3-3-3-3-3-3-3-3-|X1|-----------------|-----------------|X2
C|-----------------|-----------------|X1|-0-2-0-0-2-0-0-2-|-0-2-3-0-2-3-0-2-|X2
A|-----------------|-----------------|X1|-----------------|-----------------|X2

Break:
no bass

Verse 2: X4
F|-----------------|-----------------|------------------|-------|
C|-----------------|-----------------|------------------|-------|
G|-----------------|-----------------|------------------|-------|
C|-2-0-3-0---2-0-3-|-0---2-0-3-0---2-|-0-3-5-0---0-0-1~-|-8-8-8-|
A|-----------------|-----------------|------------------|-------|

Pre Chorus:
F|-----------------|-----------------|-----------------|
C|-----------------|-----------------|-----------------|
G|-----------------|-----------------|-----------------|
C|-2-----3-----5~--|--6------5---3-5-|-2---3--2--0~--3-|
A|-----------------|-----------------|-----------------|

F|-----------------|-----------------|----------------------|
C|-----------------|-----------------|----------------------|
G|-----------------|-----------------|----------------------|
C|-2-----3-----5~--|--6------5---3-5-|-2---3--0-3-0-3-0-2---|
A|-----------------|-----------------|----------------------|

F|-----------------|-----------------|-----------------|-----------------|X2
C|-----------------|-----------------|-----------------|-----------------|X2
G|-----------------|-----------------|-----------------|-----------------|X2
C|-0-0-0-0-0-0-0-1-|-0-0-0-0-0-0-0-1-|-0-0-0-5-5-0-0-1-|-0-0-0-0-0-0-0-0-|X2
A|-----------------|-----------------|-----------------|-----------------|X2

F|-------------------|-----------------|
C|---8-7---10-12-----|-----------------|
G|-------------------|-----------------|
C|-0-----0-------0-8-|-7-10-12-0-0-1---|
A|-------------------|-----------------|

Chorus 2:
F|-----------------|-----------------|-----------------|-----------------|
C|-----------------|-----------------|-----------------|-----------------|
G|-3-3-3-3-3-3-3-3-|-----------------|-1-1-1-1-1-1-1-1-|-----------------|
C|-----------------|-1-1-1-1-1-1-1-1-|-----------------|-5-5-5-5-5-5-5-5-|
A|-----------------|-----------------|-----------------|-----------------|

F|-----------------|-----------------|X1|-----------------|-----------------|X2
C|-----------------|-----------------|X1|-----------------|-----------------|X2
G|-1-1-1-1-1-1-1-1-|-3-3-3-3-3-3-3-3-|X1|-----------------|-----------------|X2
C|-----------------|-----------------|X1|-0-2-0-0-2-0-0-2-|-0-2-3-0-2-3-0-2-|X2
A|-----------------|-----------------|X1|-----------------|-----------------|X2

Bridge: X2
F|-----------------|-----------------|-----------------|
C|-----------------|-----------------|-----------------|
G|-----------------|-----------------|-----------------|
C|-2-----3-----5~--|--6------5---3-5-|-2---3--2--0~--3-|
A|-----------------|-----------------|-----------------|

Solo:
F|-----------------|-----------------|-----------------|
C|-----------------|-----------------|-----------------|
G|-----------------|-----------------|-----------------|
C|-2-----3-----5~--|--6------5---3-5-|-2---3--2--0~--3-|
A|-----------------|-----------------|-----------------|

F|-----------------|-----------------|-----------------|
C|-----------------|-----------------|-----------------|
G|-----------------|-----------------|-----------------|
C|-2-----3-----5~--|--6------5---3-5-|-2-2-------------|
A|-----------------|-----------------|-----------------|

Chorus 3:
F|-----------------|-----------------|-----------------|-----------------|
C|-----------------|-----------------|-----------------|-----------------|
G|-3-3-3-3-3-3-3-3-|-----------------|-1-1-1-1-1-1-1-1-|-----------------|
C|-----------------|-1-1-1-1-1-1-1-1-|-----------------|-5-5-5-5-5-5-5-5-|
A|-----------------|-----------------|-----------------|-----------------|

F|-----------------|-----------------|-----------------|-----------------|
C|-----------------|-----------------|-----------------|-----------------|
G|-1-1-1-1-1-1-1-1-|-3-3-3-3-3-3-3-3-|-----------------|-----------------|
C|-----------------|-----------------|-0-2-0-0-2-0-0-2-|-0-2-3-0-2-3-0-2-|
A|-----------------|-----------------|-----------------|-----------------|

Outro:
F|-----------------|-----------------|-----------------|-----------------|
C|-----------------|-----------------|-----------------|-----------------|
G|-3-3-3-3-3-3-3-3-|-----------------|-1-1-1-1-1-1-1-1-|-----------------|
C|-----------------|-1-1-1-1-1-1-1-1-|-----------------|-5-5-5-5-5-5-5-5-|
A|-----------------|-----------------|-----------------|-----------------|

F|-----------------|-----------------|X1|-----------------|-----------------|X2
C|-----------------|-----------------|X1|-----------------|-----------------|X2
G|-1-1-1-1-1-1-1-1-|-3-3-3-3-3-3-3-3-|X1|-----------------|-----------------|X2
C|-----------------|-----------------|X1|-0-2-0-0-2-0-0-2-|-0-2-3-0-2-3-0-2-|X2
A|-----------------|-----------------|X1|-----------------|-----------------|X2

Thats it, enjoy...


| /  slide up
| \  slide down
| h  hammer-on
| p  pull-off
| ~  vibrato
| +  harmonic
| x  Mute note
===============================================================================
Добавлено: 23.06.2015
Другие материалы по этой песне:

Страница создана 31.07.2012
http://primanota.ru/disturbed/sacrifice-chords.htm
Привет, Гость.
Предлагаем пройти революционный курс по гитаре.
Подарок от PrimaNota.Ru, забирай!