PrimaNota.ru - самый крупный в мире бесплатный архив песенных текстов, аккордов, табулатур и нот


Disturbed - Sacred Lie - текст песни, таба, бас-таба, видео

Регистрация Запомнить меня
Войти через:  Facebook Google Twitter Vk Yandex Mail.ru

Disturbed - Sacred Lie - текст песни, таба, бас-таба, видео

Печатать
Просмотров: 342
----Sacred Lie + Disturbed-----

-Tuning is: Drop C (All strings 1 step down, bass string an extra step on top of that)

------C G C F A D (low to high)------

V - Date: October 19/2005
V2- Date: October 20/2005
     -Fixed Verse.

Tabbed By: Jay Logan
Email: Subbliminal@DONTSPAM@hotmail.com 
           -Just remove the 'DONTSPAM of course.


Legend - I suggest looking over it, there are some descriptions, as well as special cases.

 /  - Slide Right (If only 1 number just slide from anywhere towards it left to right)
 \  - Slide left (If only 1 number just slide from anywhere towards it right to left)
 ^  - Bend (5^7= bend the 5 fret until it sounds like 7, or 5^ = quick bend)
(~) - Vibrato (5(~) = Wiggle the string shown)
(5) - Natural Harmonic (Just put your finger lightly over the actually fret)
<5> - Artificial Harmonic (You pick the string and let your thumb touch as well while
holding the fret shown)
 x  - Mute that string
 .  - Palm Mute (Mute the note shown with picking hand palm, the '.' is under the note)
 h  - Hammer On (ie..3h5 = pic the 3rd fret and then hammer your finger into the 5th
without picking)
 p  - Pull Off (opposite of hammer on, 5p3 = pic the 5th while holding the 3rd as well,
then pull your finger of the 5th)




---Intro---
NOTE: Let the Keep repeating the first part as needed.
      What Dan is doing is going up and down the string
      with the pic while playing Artificial Harmonics.
      This gives the alternating pitch on the 5 fret note
      while also grazing up and down on the string with the
      pic to produce the tube like sound in the background
      It is the best idea I could come up with, sounds pretty 
      good.


  Repeat      Last time
D|--------|---------------------------------|
A|--------|---------------------------------|
F|--------|---------------------------------|
C|--------|---------------------------------|
G|--3-<5>-|-3-<5>--3-<5>--3-<5>------5-3----|
C|--------|----------------------3-5-----3--|


---Intro Part 2---

  
D|----------------------------|------------------------------|
A|----------------------------|------------------------------|
F|----------------------------|------------------------------|
C|----------------------------|-----------------6-------6-6--|
G|-6-5---5--5-5--5-5--6-5-6-8-|-6-5---5--5-5--5-x---0-5-x-x--|
C|-0-0---0--0-0--0-0--0-0-0-0-|-0-0---0--0-0--0-6---0-0-6-6--|



D|----------------------------|------------------------------|
A|----------------------------|------------------------------|
F|----------------------------|------------------------------|
C|----------------------------|------------------------------|
G|-6-5---5--5-5--5-5--6-5-6-8-|-6-5---5--5-5--0-3-5--5-0-3-5-|
C|-0-0---0--0-0--0-0--0-0-0-0-|-0-0---0--0-0--0-3-5--0-0-3-5-|





---Verse---

D|------------------------------------------------------------|
A|------------------------------------------------------------|
F|------------------------------------------------------------|
C|------------------------------------------------------------|
G|-5--5-6-5-3-5--3-3--3-3--5-6-5--5-6-5-3-5--3-3-0-6-6-0-3-5--|
C|-0--0-0-0-0-0--0-0--0-0--0-0-0--0-0-0-0-0-------------------|
   .  . . . . .  . .  . .  . . .  . . . . .


D|------------------------------------------------------------|
A|------------------------------------------------------------|
F|------------------------------------------------------------|
C|-------------------------------------------1-----------1--0-|
G|-5--5-6-5-3-5--3-3--3-3--5-6-5--5-6-5-3-5--1--1-1-1-1--1--0-|
C|-0--0-0-0-0-0--0-0--0-0--0-0-0--0-0-0-0-0--1--1-1-1-1--1--0-|
   .  . . . . .  . .  . .  . . .  . . . . .     . . . .



D|------------------------------------------------------------|
A|------------------------------------------------------------|
F|------------------------------------------------------------|
C|------------------------------------------------------------|
G|-5--5h6p5-3-5--3-3--3-3--5h6-5--5h6p5-3-5--3-3-0-6-6-0-3-5--|
C|-0--0-0-0-0-0--0-0--0-0--0-0-0--0-0-0-0-0-------------------|



D|------------------------------------------------------------|
A|------------------------------------------------------------|
F|------------------------------------------------------------|
C|-------------------------------------------1-----------1--0-|
G|-5--5h6p5-3-5--3-3--3-3--5h6-5--5h6p5-3-5--1--1-1-1-1--1--0-|
C|-0--0-0-0-0-0--0-0--0-0--0-0-0--0-0-0-0-0--1--1-1-1-1--1--0-|
  



---Chorus---
* = Strum as needed


   *        *            *        *             *        *           4 Times  4 Times  
D|-5-------------------|-5--------------------|-5-------------------|-------|---------------------|
A|-x-------------------|-x--------------------|-x-------------------|-------|---------------------|
F|-7---9-9--10--10--9--|-7---9-9--10--10--12--|-7---9-9--10--10--9--|-5-----|-3-------------------|
C|-7---7-7--8---x---x--|-7---7-7--8---x---x---|-7---7-7--8---10--9--|-5--5--|-3--3----------------|
G|-5---7-7--8---8---7--|-5---7-7--8---8---10--|-5---7-7--8---8---7--|-3--3--|-1--1----------------|
C|-0---7-7--8----------|-0---7-7--8-----------|-0---7-7--8----------|----5--|----3----------------|





Post Chorus Riff (The intro)


D|----------------------------|------------------------------|
A|----------------------------|------------------------------|
F|----------------------------|------------------------------|
C|----------------------------|-----------------6-------6-6--|
G|-6-5---5--5-5--5-5--6-5-6-8-|-6-5---5--5-5--5-x---0-5-x-x--|
C|-0-0---0--0-0--0-0--0-0-0-0-|-0-0---0--0-0--0-6---0-0-6-6--|



D|----------------------------|------------------------------|
A|----------------------------|------------------------------|
F|----------------------------|------------------------------|
C|----------------------------|------------------------------|
G|-6-5---5--5-5--5-5--6-5-6-8-|-6-5---5--5-5---------5-------|
C|-0-0---0--0-0--0-0--0-0-0-0-|-0-0---0--0-0--0-3-5--0-0-3-5-|
                                              . . .  . . . .






---Verse---

D|------------------------------------------------------------|
A|------------------------------------------------------------|
F|------------------------------------------------------------|
C|------------------------------------------------------------|
G|-5--5-6-5-3-5--3-3--3-3--5-6-5--5-6-5-3-5--3-3-0-6-6-0-3-5--|
C|-0--0-0-0-0-0--0-0--0-0--0-0-0--0-0-0-0-0-------------------|
   .  . . . . .  . .  . .  . . .  . . . . .


D|------------------------------------------------------------|
A|------------------------------------------------------------|
F|------------------------------------------------------------|
C|-------------------------------------------1-----------1--0-|
G|-5--5-6-5-3-5--3-3--3-3--5-6-5--5-6-5-3-5--1--1-1-1-1--1--0-|
C|-0--0-0-0-0-0--0-0--0-0--0-0-0--0-0-0-0-0--1--1-1-1-1--1--0-|
   .  . . . . .  . .  . .  . . .  . . . . .     . . . .



D|------------------------------------------------------------|
A|------------------------------------------------------------|
F|------------------------------------------------------------|
C|------------------------------------------------------------|
G|-5--5h6p5-3-5--3-3--3-3--5h6-5--5h6p5-3-5--3-3-0-6-6-0-3-5--|
C|-0--0-0-0-0-0--0-0--0-0--0-0-0--0-0-0-0-0-------------------|



D|------------------------------------------------------------|
A|------------------------------------------------------------|
F|------------------------------------------------------------|
C|-------------------------------------------1-----------1--0-|
G|-5--5h6p5-3-5--3-3--3-3--5h6-5--5h6p5-3-5--1--1-1-1-1--1--0-|
C|-0--0-0-0-0-0--0-0--0-0--0-0-0--0-0-0-0-0--1--1-1-1-1--1--0-|




---Chorus---
* = Strum as needed


   *        *            *        *             *        *           4 Times  4 Times  
D|-5-------------------|-5--------------------|-5-------------------|-------|--------|
A|-x-------------------|-x--------------------|-x-------------------|-------|--------|
F|-7---9-9--10--10--9--|-7---9-9--10--10--12--|-7---9-9--10--10--9--|-5-----|-3------|
C|-7---7-7--8---x---x--|-7---7-7--8---x---x---|-7---7-7--8---10--9--|-5--5--|-3--3---|
G|-5---7-7--8---8---7--|-5---7-7--8---8---10--|-5---7-7--8---8---7--|-3--3--|-1--1---|
C|-0---7-7--8----------|-0---7-7--8-----------|-0---7-7--8----------|----5--|----3---|




---BreakDown---
NOTE: Only mute the E (C in this Tuning) and A (G in this Tuning) strings, always sound
the obiviously un-muted notes. Repeat as needed. Try using up Strokes on the unmuted
notes to get them to sound out much better then a downward as that note will be hit before
the muted string under it. 

D|----------------------------|------------------------------|
A|----------------------------|------------------------------|
F|----------------------------|------------------------------|
C|----------------------------|-----------------6-------6-6--|
G|-6-5---5--5-5--5-5--6-5-6-8-|-6-5---5--5-5--5-x---0-5-x-x--|
C|-0-0---0--0-0--0-0--0-0-0-0-|-0-0---0--0-0--0-6---0-0-6-6--|
   


D|-----------------------------------------------------------|
A|-----------------------------------------------------------|
F|-----------------------------------------------------------|
C|--------------------6------5---------------6-----5-0-3-5---|
G|-5-6-5--5---5-6-5-3----3-5---5-6-5-3-5-6-5---3-5-----------|
C|-0-0-0------0-0-0-0----0-0---0-0---0-0-0-0---0-0-----------|
   . . .      . . . .    . .   . .   . . . .   . .

Last Time Through

D|-----------------------------------------------------------|
A|-----------------------------------------------------------|
F|-----------------------------------------------------------|
C|--------------------6------5---------------6-----5---------|
G|-5-6-5--5---5-6-5-3----3-5---5-6-5-3-5-6-5---3h5-----------|
C|-0-0-0------0-0-0-0----0-0---0-0---0-0-0-0-----------------|
   . . .      . . . .    . .   . .   . . . .



---Chorus---
* = Strum as needed

   *        *            *        *             *        *           4 Times  4 Times  
D|-5-------------------|-5--------------------|-5-------------------|-------|--------|
A|-x-------------------|-x--------------------|-x-------------------|-------|--------|
F|-7---9-9--10--10--9--|-7---9-9--10--10--12--|-7---9-9--10--10--9--|-5-----|-3------|
C|-7---7-7--8---x---x--|-7---7-7--8---x---x---|-7---7-7--8---10--9--|-5--5--|-3--3---|
G|-5---7-7--8---8---7--|-5---7-7--8---8---10--|-5---7-7--8---8---7--|-3--3--|-1--1---|
C|-0---7-7--8----------|-0---7-7--8-----------|-0---7-7--8----------|----5--|----3---|



NOTE: MUTE SOME NOTES WHILE STRUMMING THIS TIME.

   *        *            *        *             *        *           4 Times  4 Times  
D|-5-------------------|-5--------------------|-5-------------------|-------|--------|
A|-x-------------------|-x--------------------|-x-------------------|-------|--------|
F|-7---9-9--10--10--9--|-7---9-9--10--10--12--|-7---9-9--10--10--9--|-5-----|-3------|
C|-7---7-7--8---10--9--|-7---7-7--8---10--12--|-7---7-7--8---10--9--|-5--5--|-3--3---|
G|-5---7-7--8---8---7--|-5---7-7--8---8---10--|-5---7-7--8---8---7--|-3--3--|-1--1---|
C|-0---7-7--8----------|-0---7-7--8-----------|-0---7-7--8----------|----5--|----3---|




---OUTRO---


D|----------------------------|----------------------------|
A|----------------------------|----------------------------|
F|----------------------------|----------------------------|
C|----------------------------|----------------------------|
G|-6-5---5--5-5--5-5--6-5-6-8-|-6-5---5--5-5--5-5--6-5-6-8-|
C|-0-0---0--0-0--0-0--0-0-0-0-|-0-0---0--0-0--0-0--0-0-0-0-|



D|----------------------------|----------------------------|
A|----------------------------|----------------------------|
F|----------------------------|----------------------------|
C|----------------------------|----------------------------|
G|-6-5---5--5-5--5-5--6-5-6-8-|-6-5---5--5-5---------------|
C|-0-0---0--0-0--0-0--0-0-0-0-|-0-0---0--0-0---------------|


----------
And there it is. I know I make these long but it is, in my opinion, easier to scroll
down instead of jumping around the tab looking for parts 

and sometimes there are parts with small differences and it just makes it easier for
me to show them by writing everything out.
Thanks,
-Jay Logan (Subbliminal@DONTSPAM@hotmail.com) Just remove the 'DONTSPAM of course.
Добавлено: 22.03.2012
Другие материалы по этой песне:

Страница создана 02.03.2012
http://primanota.ru/disturbed/sacred-lie-chords.htm
Привет, Гость.
Предлагаем пройти революционный курс по гитаре.
Подарок от PrimaNota.Ru, забирай!