PrimaNota.ru - самый крупный в мире бесплатный архив песенных текстов, аккордов, табулатур и нот


Disturbed - Run - текст песни, таба, видео

Регистрация Запомнить меня
Войти через:  Facebook Google Twitter Vk Yandex Mail.ru

Disturbed - Run - текст песни, таба, видео

Печатать
Просмотров: 341
INTRO

Play x2

D|-----------------------------------------------------------------|
A|-----------------------------------------------------------------|
F|-----------------------------------------------------------------|
C|-----------------------------------------------------------------|
G|-----------------------------------------------------------------|
C|-4-5-4-4/10-10-10-9-9-9-2-2-2-5-4-5-4/10-10-10-9-9-9-2-2-2-5-7-5-|

VERSE

Play x2

D|--------------------------------------------------------------------|
A|--------------------------------------------------------------------|
F|--------------------------------------------------------------------|
C|--------------------------------------------------------------------|
G|---------------------------------/10-----7-----9-----10---7---9---7-|
C|-7-0-0-0-9-0-0-10-0-0-0-9-0-0-2-4----0-0---0-0---0-0----0---0---0---|
PM   . . .   . .    . . .   . .        . .   . .   . .    .   .   .

then

D|----------------------------------------------------------------|
A|----------------------------------------------------------------|
F|----------------------------------------------------------------|
C|-7-7-7-7-7-7-7-7-7-7-7-7-7-7-7-7-7-0-0-0-9-0-0-10-0-0-9-0-0-2-4-|
G|-7-7-7-7-7-7-7-7-7-7-7-7-7-7-7-7-7-0-0-0-9-0-0-10-0-0-9-0-0-2-4-|
C|-7-7-7-7-7-7-7-7-7-7-7-7-7-7-7-7-7-0-0-0-9-0-0-10-0-0-9-0-0-2-4-|
PM                                   . . .   . .    . .   . . 

D|----------------------------------------------------------------|
A|----------------------------------------------------------------|
F|----------------------------------------------------------------|
C|-7-7-7-7-7-7-7-7-7-7-7-7-2---2---4-4-4-4-4-2-4------------------|
G|-7-7-7-7-7-7-7-7-7-7-7-7-2---2---4-4-4-4-4-2-4------------------|
C|-7-7-7-7-7-7-7-7-7-7-7-7-2---2---4-4-4-4-4-2-4-9---10-9-7-9-7-2-|

CHORUS

D|---------------------------------------------------------------|
A|---------------------------------------------------------------|
F|---------------------------------------------------------------|
C|-4-4-4-4---4---4---6-6---6-6-6-6-0-0-0-0---0---0---2-2---2-2-2-|
G|-4-4-4-4---4---4---6-6---6-6-6-6-0-0-0-0---0---0---2-2---2-2-2-|
C|-4-4-4-4---4---4---6-6---6-6-6-6-0-0-0-0---0---0---2-2---2-2-2-|
PM                                 . . . .   .   .   . .   . . . 

D|-----------------------------------------------------------------|
A|-----------------------------------------------------------------|
F|-----------------------------------------------------------------|
C|-4-4-4-4---4---4---6-6---6-6-6-6-0-0-0-0---0---9---9---9-11-11-7-|
G|-4-4-4-4---4---4---6-6---6-6-6-6-0-0-0-0---0---9---9---9-11-11-7-|
C|-4-4-4-4---4---4---6-6---6-6-6-6-0-0-0-0---0---9---9---9-11-11-7-|
PM                                 . . . .   . 

D|---------------------------------------------------------------|
A|---------------------------------------------------------------|
F|---------------------------------------------------------------|
C|-4-4-4-4---4---4---6-6---6-6-6-6-0-0-0-0---0---0---2-2---2-2-2-|
G|-4-4-4-4---4---4---6-6---6-6-6-6-0-0-0-0---0---0---2-2---2-2-2-|
C|-4-4-4-4---4---4---6-6---6-6-6-6-0-0-0-0---0---0---2-2---2-2-2-|
PM                                 . . . .   .   .   . .   . . . 

D|-----------------------------------------------------------------|
A|-----------------------------------------------------------------|
F|-----------------------------------------------------------------|
C|-4-4-4-4---4---4---2-2---2-2-2-2-7-7-7-7---7---9---9---9-11-11-7-|
G|-4-4-4-4---4---4---2-2---2-2-2-2-7-7-7-7---7---9---9---9-11-11-7-|
C|-4-4-4-4---4---4---2-2---2-2-2-2-7-7-7-7---7---9---9---9-11-11-7-|


At this point, replay everything from the start (including INTRO and repetitions)

Then,

BRIDGE

D|------------------------------------------------------------------|
A|------------------------------------------------------------------|
F|------------------------------------------------------------------|
C|-9999999999999999777777777777777744444444444444443333333333333333-|
G|-9999999999999999777777777777777744444444444444443333333333333333-|
C|-9999999999999999777777777777777744444444444444443333333333333333-|

D|----------------------------------------------------------|
A|----------------------------------------------------------|
F|----------------------------------------------------------|
C|-999999999999999912121212121212121212121212121212-14--14--|
G|-999999999999999912121212121212121212121212121212-14--14--|
C|-999999999999999912121212121212121212121212121212-14--14--|
            
                   (^^twelves, not 1-2-1-2)

(All the above is up & down strumming, it's not incredibly fast)

Replay INTRO (3x instead of 2x)
Replay CHORUS

OUTRO

(is basically a verse, guitar-wise)

Play x2

D|--------------------------------------------------------------------|
A|--------------------------------------------------------------------|
F|--------------------------------------------------------------------|
C|--------------------------------------------------------------------|
G|---------------------------------/10-----7-----9-----10---7---9---7-|
C|-7-0-0-0-9-0-0-10-0-0-0-9-0-0-2-4----0-0---0-0---0-0----0---0---0---|
PM   . . .   . .    . . .   . .        . .   . .   . .    .   .   .
Добавлено: 25.06.2012
Другие материалы по этой песне:

Страница создана 01.06.2012
http://primanota.ru/disturbed/run-chords.htm
Привет, Гость.
Предлагаем пройти революционный курс по гитаре.
Подарок от PrimaNota.Ru, забирай!