PrimaNota.ru - самый крупный в мире бесплатный архив песенных текстов, аккордов, табулатур и нот


Disturbed - Parasite - текст песни, таба, видео

Регистрация Запомнить меня
Войти через:  Facebook Google Twitter Vk Yandex Mail.ru

Disturbed - Parasite - текст песни, таба, видео

Печатать
Просмотров: 300
TABBED BY CAMERON JEROME DREW ( this is for you Lauren <3 haha )

Okay guitarin' guys an gals.  This is my first tab. I taught myself the song using only
ears and fingers... really more of a wild guess than anything, so please don't be too critical.

Nobody else has a tab of this song up. I figured me having only figured out the chorus
main riff out that putting them up would be better then nothing.

I am 15 and have only been playing guitar for 4 months.

I believe the song is Drop C tuning like most of Disturbed's songs although I had my
tuned Standard when i tabbed it (it sounds right, but off at the same time when i play 
standard).

=D enjoy, feel free to contribute additions and corrections where needed.

~~~~~~~~~~~~~~Main Riff~~~~~~~~~~~~~~~~~~~

F|-------------------------------------------|
A|-------------------------------------------|
D|-------------------------------------------|
C|-7-----8-----5-----7------10-8---7-8-5-----|
G|-7-----8-----5-----7------10-8---7-8-5-----|
C|-5-0-0-6-0-0-3-0-0-5-0-0--8--6---5-6-3-0-0-|

F|-------------------|---------|-------------|
A|-------------------|---------|-------------|
D|-------------------|---------|-------------|
C|-7-----8-----5-----|--10-10--|---1-1-1-----|
G|-7-----8-----5-----|--10-10--|---1-1-1-----|
C|-5-0-0-6-0-0-3-0-0-|--8--8---|---3-3-3-----|
                      ~~~1st~~~~~~~~2nd~~~~~~~

~~~~~~~~~~~~~~~Chorus~~~~~~~~~~~~~~~~~~~~~~~~~

F|---------------------------------------|
A|---------------------------------------|
D|---------------------------------------|
C|-7-7-7--8-8-8--5-5-5--7-7-7--10-10-8-8-|
G|-7-7-7--8-8-8--5-5-5--7-7-7--10-10-8-8-|
C|-5-5-5--6-6-6--3-3-3--5-5-5--8--8--6-6-|

F|---------------------------------------|
A|---------------------------------------|
D|---------------------------------------|
C|-7-7-7--8-8-8--5-5-5--7-7-7--8---10----|
G|-7-7-7--8-8-8--5-5-5--7-7-7--8---10----|
C|-5-5-5--6-6-6--3-3-3--5-5-5--6---8-----|

F|---------------------------------------|
A|---------------------------------------|
D|---------------------------------------|
C|-7-7-7--8-8-8--5-5-5--7-7-7--10-10-8-8-|
G|-7-7-7--8-8-8--5-5-5--7-7-7--10-10-8-8-|
C|-5-5-5--6-6-6--3-3-3--5-5-5--8--8--6-6-|

F|---------------------------------------|
A|---------------------------------------|
D|---------------------------------------|
C|-7-7-7-7---7-7-7---5---5-5-5-5-5-------|
G|-7-7-7-7---7-7-7---5---5-5-5-5-5-------|
C|-5-5-5-5---5-5-5---3---3-3-3-3-3-------|

good for a first tab? please feedback and rating.
Добавлено: 13.04.2012
Другие материалы по этой песне:

Страница создана 13.04.2012
http://primanota.ru/disturbed/parasite-chords.htm
Привет, Гость.
Предлагаем пройти революционный курс по гитаре.
Подарок от PrimaNota.Ru, забирай!