PrimaNota.ru - самый крупный в мире бесплатный архив песенных текстов, аккордов, табулатур и нот


Disturbed - My Child - текст песни, таба, видео

Регистрация Запомнить меня
Войти через:  Facebook Google Twitter Vk Yandex Mail.ru

Disturbed - My Child - текст песни, таба, видео

Печатать
Просмотров: 181
My Child-Disturbed off of Asylum. Tabbed by yanksandjetsfan.  The tuning is drop d down 
half step (Drop C# or Drop Db).  Very fun song!
Should be 100% right.    *=palm mute

Intro (Play twice)
Eb -----------------------------------------------------------------|
Bb -----------------------------------------------------------------|
Gb -----------------------------------------------------------------|
Db -----------------------------------------------------------------|
Ab -----------------------------------------------------------------|
Db 1-0-0-6-0-0-3-0-0-3-0-0-8-0-7-7--1-0-0-6-0-3-0-3-0-0-0-0-6-0-5-6-|

Verse Part 1 (Play twice)
Eb -----------------------------------------------------------------|
Bb -----------------------------------------------------------------|
Gb -----------------------------------------------------------------|
Db -----------------------------------------------------------------|
Ab -----------------------------------------------------------------|
Db 1-0-0-6-0-0-3-0-0-3-0-0-8-0-7-7--1-0-0-6-0-3-0-3-0-0-0-0-6-0-5-6-|
   * * * * * * * * * * * * * * * *  * * * * * * * * * * * * * * * *
Verse Part 2 (Play twice)
Eb -----------------------------------------------------------------|
Bb -----------------------------------------------------------------|
Gb -----------------------------------------------------------------|
Db -----------------------------------------------------------------|
Ab -----------------------------------------------------------------|
Db 1-0-0-6-0-0-3-0-0-3-0-0-8-0-7-7--1-0-0-6-0-3-0-3-0-0-0-0-6-0-5-6-|

Pre Chorus (Play twice)
Eb ----------------------------------------------------------------|
Bb ----------------------------------------------------------------|
Gb ----------------------------------------------------------------|
Db ----------------------------------------------------------------|
Ab ----------------------------------------------------------------|
Db 5-5-5-6-6-0-0-0-0-3-3-3-5-5-5-6-6-6-0-0-3-3-0-0-3-3-2-2-3-3-8-8-|
   * * * * * * * * * * * * * * * * * * * * * * * * * * * * * * * *
Chorus (Play twice)
Eb -----------------------------------------------------------------|
Bb -----------------------------------------------------------------|
Gb -----------------------------------------------------------------|
Db 1------------6-5------------0----------------1---------------1-0-|
Ab 1------------6-5------------0----------------1---------------1-0-|
Db 1------------6-5------------0----------------1---------------1-0-|

Play Verse Part 1
Play Verse Part 2
Play Pre Chorus
Play Chorus

Breakdown (With Flanger effect, Play 4 times)
Eb -----------------------------------------------------------------|
Bb -----------------------------------------------------------------|
Gb -----------------------------------------------------------------|
Db ----7-8-7---7---5-7-5---5-----------7-8-7---5-7-5---5------------|
Ab ----------8---8-------6---6-5-6-----------8-------6---6-5-6-5----|
Db 5-5-----------------------------5-5----------------------------8-|
   * *                             * *

Play Chorus

Outro (Play twice)
Eb -----------------------------------------------------------------|
Bb -----------------------------------------------------------------|
Gb -----------------------------------------------------------------|
Db -----------------------------------------------------------------|
Ab -----------------------------------------------------------------|
Db 1-0-0-6-0-0-3-0-0-3-0-0-8-0-7-7--1-0-0-6-0-3-0-3-0-0-0-0-6-0-5-6-|

Thats it, enjoy!
Добавлено: 13.04.2012
Другие материалы по этой песне:

Страница создана 13.04.2012
http://primanota.ru/disturbed/my-child-chords.htm
Привет, Гость.
Предлагаем пройти революционный курс по гитаре.
Подарок от PrimaNota.Ru, забирай!