PrimaNota.ru - самый крупный в мире бесплатный архив песенных текстов, аккордов, табулатур и нот


Disturbed - Innocence - текст песни, таба, видео

Регистрация Запомнить меня
Войти через:  Facebook Google Twitter Vk Yandex Mail.ru

Disturbed - Innocence - текст песни, таба, видео

Печатать
Просмотров: 282
---------------------------------------------------------------------------
                           INNOCENCE - Disturbed
---------------------------------------------------------------------------
Tabbed By: Tobse
Tuning: Drop C [ C G C F A D ]
I'm not that sure with the Bridge, there mus be a effect i don't know but it
should be correct.
Please comment here or to tobias.m@onlinehome.de with subject "UG Tab"

>>> Intro <<<
D|---------------------------------------------------------|--------------|
A|o-------------------------------------------------------o|4x------------|
F|---------------------------------------------------------|--------------|
C|--0--X-8--0--0-0-8-0h8--7-7-5-x--0-0--0-8-0-8-X-X-8-8-7--|--------------|
G|o-0--X-8--0--0-0-8-0h8--7-7-5-x--0-0--0-8-0-8-X-X-8-8-7-o|4x------------|
C|-----X------------------------x---------------X-X--------|--------------|

D|-------------------------------------------------------------|----------|
A|o-----------------------------------------------------------o|----------|
F|-------------------------------------------------------------|----------|
C|-------------------------------------------8--8-8--10-10-10--|----------|
G|o-0--0-0--0--0-0-0--0-0-3-6-0--0-0-3-6-0---8--8-8--10-10-10-o|----------|
C|--0--0-0--0--0-0-0--0-0-3-6-0--0-0-3-6-0---8--8-8--10-10-10--|----------|
    .  . .  .  . . .  . . . . .  . . . . .


>>> Verse <<<
                                             1.________________ 2._________
                                            |                  |
D|------------------------------------------|------------------|----------|
A|o-----------------------------------------|------------------|----------|
F|------------------------------------------|------------------|----------|
C|------------------------------------------|-8--8-8--10-10-10-|-10-10-10-|
G|o-----------------------------------------|-8--8-8--10-10-10-|-8--8--8--|
C|--0--0-0--0--0-0-0--0-0-0-0-0--0-0-3-6-0--|-8--8-8--10-10-10-|-8--8--8--|

 _____________________________________________________________
                                                              |
D|------------------------------------------------------------|-----------|
A|------------------------------------------------------------|-----------|
F|------------------------------------------------------------|-----------|
C|-7-7-7-7-7--8-8-8-7-7-7-5-5--7-7-7-8-8-8-7-7--9-9-9-9-10-10-|-----------|
G|-7-7-7-5-5-------------------7-7-7-8-8-8-7-7--7-7-7-7-8--8--|-----------|
C|-7-7-7-5-5-------------------7-7-7-8-8-8-7-7----------------|-----------|
              . . . . . . . .

>>> Chorus <<<

D|------------------------------------------------------------------------|
A|o-----------------------------------------------------------------------|
F|------------------------------------------------------------------------|
C|--0--12-10-10\9--10\7-9-0--15-14-10-10--12-12--15-0-15-14-12--10-10--12-|
G|o-0--10-8--8-\7--8-\5-7-0--13-12-8--8---10-10--13-0-13-12-10--8--8---10-|
C|--0---------------------0-------------------------0---------------------|
    Your..                Cancer..

                                         1. Chorus_________________________
                                        |
D|----------------------13---12---10----|---------------------------------|
A|-------------------------------------o|---------------------------------|
F|--------------------------------------|---------------------------------|
C|-0-0-0-0-0-0-0-0-0--00---0----0----0--|-0-x-8--0--0-0-8-0---------------|
G|-0-0-0-0-0-0-0-0-0--00---0----0----0-o|-0-x-8--0--0-0-8-0---------------|
C|-0-0-0-0-0-0-0-0-0--00---0----0----0--|-0-x-----------------------------|
   . . . . . . . . .   .    

 __________________________________________________________ 2. Chorus_____
                                                           |              |
D|---------------------------------------------------------|---|----------|
A|o-------------------------------------------------------o|2x-|----------|
F|---------------------------------------------------------|---|----------|
C|--0--X-8--0--0-0-8-0h8--7-7-5-x--0-0--0-8-0-8-X-X-8-8-7--|---|-0--------|
G|o-0--X-8--0--0-0-8-0h8--7-7-5-x--0-0--0-8-0-8-X-X-8-8-7-o|2x-|-0--------|
C|-----X------------------------x---------------X-X--------|---|-0--------|



Then play the Verse and the Chorus again.

>>> Bridge <<<

D|------------------------------------------------------------------------|
A|o----------------------------------------------------------------------o|
F|--------5-8---------5-7-------5---------5-8-----------------------------|
C|--0-0-0-----0-0-0-0-----0-0-0---0-0-0-0-----0-0-7-0-0-0-5-0-0-0-3-------|
G|o-0-0-------0-0-0-------0-0-----0-0-0-------0-0---0-0-0---0-0-0--------o|
C|--0-0-------0-0-0-------0-0-----0-0-0-------0-0---0-0-0---0-0-0---------|
    . . . . . . . . . . . . . . . . . . . . . . . . . . . . . . . .

D|------------------------------------------------------------------------|
A|o----------------------------------------------------------------------o|
F|--------5-8---------5-7-------5---------5-8-----------------------------|
C|--0-0-0-----0-0-0-0-----0-0-0---0-0-0-0-----0-0-7-0-0-0-5-0-0-0-3-------|
G|o-0-0-------0-0-0-------0-0-----0-0-0-------0-0---0-0-0---0-0-0--------o|
C|--0-0-------0-0-0-------0-0-----0-0-0-------0-0---0-0-0---0-0-0---------|
    . .       . . .       . .     . . .       . .   . . .   . . . 

Then there is a drum part just play nothing here.

D|------------------------------------------------------------------------|
A|------------------------------------------------------------------------|
F|------------------------------------------------------------------------|
C|-------------------------------------------------------0-0-0-0-8-8------|
G|-8-8-8-8-8-8-8-8-8-8-8-8-8-8-8-8--7-7-7-7-7-7-7-7-7-7--0-0-0-0-8-8------|
C|-8-8-8-8-8-8-8-8-8-8-8-8-8-8-8-8--7-7-7-7-7-7-7-7-7-7-------------------|
   16 8s                            10 7s


>>> Chorus <<<

D|------------------------------------------------------------------------|
A|o-----------------------------------------------------------------------|
F|------------------------------------------------------------------------|
C|--0--12-10-10\9--10\7-9-0--15-14-10-10--12-12--15-0-15-14-12--10-10--12-|
G|o-0--10-8--8-\7--8-\5-7-0--13-12-8--8---10-10--13-0-13-12-10--8--8---10-|
C|--0---------------------0-------------------------0---------------------|
    Your..                Cancer..

                                         
                      1.________________ 2._
                     |                  |   |            
D|-------------------|---13---12---10---|---|-----------------------------|
A|-------------------|------------------|--o|-----------------------------|
F|-------------------|------------------|---|-----------------------------|
C|-0-0-0-0-0-0-0-0-0-|-00---0----0----0-|---|-----------------------------|
G|-0-0-0-0-0-0-0-0-0-|-00---0----0----0-|--o|-----------------------------|
C|-0-0-0-0-0-0-0-0-0-|-00---0----0----0-|---|-----------------------------|
   . . . . . . . . .   .    

>>> Outro <<<

D|------------------------------------------------------------------------|
A|o-----------------------------------------------------------------------|
F|------------------------------------------------------------------------|
C|--0--0-0-3-6-0--0--0-0-3-6-0--0-0-0-0-3-6-0--0-0-3-6-0-3-0--3--3-3------|
G|o-0--0-0-3-6-0--0--0-0-3-6-0--0-0-0-0-3-6-0--0-0-3-6-0-3-0--3--3-3------|
C|--0--0-0-3-6-0--0--0-0-3-6-0--0-0-0-0-3-6-0--0-0-3-6-0-3-0--3--3-3------|

  1.-3.__ 4._____
 |       |       |
D|-------|-------|--------------------------------------------------------|
A|-------|-------|--------------------------------------------------------|
F|-------|-------|--------------------------------------------------------|
C|-8-8-8-|-8-8-0-|--------------------------------------------------------|
G|-8-8-8-|-8-8-0-|--------------------------------------------------------|
C|-8-8-8-|-8-8-0-|--------------------------------------------------------|
Добавлено: 24.07.2012
Другие материалы по этой песне:

Страница создана 29.02.2012
http://primanota.ru/disturbed/innocence-chords.htm
Привет, Гость.
Предлагаем пройти революционный курс по гитаре.
Подарок от PrimaNota.Ru, забирай!