PrimaNota.ru - самый крупный в мире бесплатный архив песенных текстов, аккордов, табулатур и нот


Disturbed - Indestructible (album) - таба, видео

Регистрация Запомнить меня
Войти через:  Facebook Google Twitter Vk Yandex Mail.ru

Disturbed - Indestructible (album) - таба, видео

Печатать
Просмотров: 405
1.Indestructible[tabbed by: SpyderPB6]
2.Inside the Fire[tabbed by: tdopz]
3.Deciever[tabbed by: [travis]]
4.The Night[tabbed by: psychogtr666]
5.Perfect Insanity[tabbed by: livewire98]
6.Haunted[tabbed by: livewire98]
7.Enough[tabbed by: Subbliminal]
8.The Curse[tabbed by: EliteBouncer]
9.Torn[tabbed by: livewire98]
10.Criminal[tabbed by: SpyderPB6]
11.Divide[tabbed by: Imperial Throg]
12.Facade[tabbed by: unregistered]




1. Indestructible


Intro X2

D|------------------------------------------------------------------------------|
A|------------------------------------------------------------------------------|
F|------------------------------------------------------------------------------|
C|-5/7-----7---10----7----8----85/7---10---7---8---8-8-8------------------------|
G|-3/5-----5---8-----5----6----63/5---8----5---6---6-6-6------------------------|
C|-----0-0---0----00---00---00------0----0---0---0------------------------------|


D|------------------------------------------------------------------------------|
A|------------------------------------------------------------------------------|
F|------------------------------------------------------------------------------|
C|-5/7-----7---10----7----8----85/7---10---7------------------------------------|
G|-3/5-----5---8-----5----6----63/5---8----5------------------------------------|
C|-----0-0---0----00---00---00------0----0---7-7-7-10-7-------------------------|


Verse X1

D|------------------------------------------------------------------------------|
A|------------------------------------------------------------------------------|
F|------------------------------------------------------------------------------|
C|-------7-10----------------------------------7-10------7----------------------|
G|----10------------8-10-12------7-8-5------10------8-10-------7-8---10---8-----|
C|0-0---------0-0-0---------0-0--------0-0----------------0-0------0----0-------|

D|------------------------------------------------------------------------------|
A|------------------------------------------------------------------------------|
F|------------------------------------------------------------------------------|
C|-------7-10--------------------------------7-10------7----------------3-------|
G|----10------------8-10-12-----7-8-5-----10------8-10-------7-8---10-----------|
C|0-0---------0-0-0---------0-0-------0-0----------------0-0-----0----0---------|

D|------------------------------------------------------------------------------|
A|------------------------------------------------------------------------------|
F|------------------------------------------------------------------------------|
C|-------7-10----------------------------------7-10------7----------------------|
G|----10------------8-10-12------7-8-5------10------8-10-------7-8---10---8-----|
C|0-0---------0-0-0---------0-0--------0-0----------------0-0------0----0-------|

D|------------------------------------------------------------------------------|
A|------------------------------------------------------------------------------|
F|------------------------------------------------------------------------------|
C|-------7-10---------------------------------7-10------7----------------3------|
G|----10------------8-10-12-----7-8-12-----10------8-10-------7-8---10----------|
C|0-0---------0-0-0---------0-0-------0-0-----------------0-0-----0----0--------|



PreChorus X1

D|------------------------------------------------------------------------------|
A|------------------------------------------------------------------------------|
F|------------------------------------------------------------------------------|
C|-5--55-5--55-5/3--8-88-8-88-8/7-----------------------------------------------|
G|-5--55-5--55-5/3--8-88-8-88-8/7-----------------------------------------------|
C|-5--55-5--55-5/3--8-88-8-88-8/7-----------------------------------------------|


Chorus X1

D|------------------------------------------------------------------------------|
A|------------------------------------------------------------------------------|
F|------------------------------------------------------------------------------|
C|-0-0---0----7-5/7---0-0-0-----7-8\7-----1-1-111-------------------------------|
G|-0-0---0----5-3/5---0-0-0-----5-6\5-----1-1-111-------------------------------|
C|-0---0----0---------0---0-00--------0-0-1-1-111-------------------------------|
   d d u d  d         d d u dd
   PM------PM         PM----PM        P-M



D|------------------------------------------------------------------------------|
A|------------------------------------------------------------------------------|
F|------------------------------------------------------------------------------|
C|-0-0---0----7-5/7---0-0-0-----7-8\7-----1-1-33-1------------------------------|
G|-0-0---0----5-3/5---0-0-0-----5-6\5-----1-1-33-1------------------------------|
C|-0---0----0---------0---0-00--------0-0-1-1-33-1------------------------------|
   d d u d  d         d d u dd
   PM------PM         PM----PM        P-M

D|------------------------------------------------------------------------------|
A|------------------------------------------------------------------------------|
F|-2------------------2---------------------------------------------------------|
C|-0-0---0----7-5/7---0-0-0-----7-8\7-----1-1-111//-----------------------------|
G|-0-0---0----5-3/5---0-0-0-----5-6\5-----1-1-111//-----------------------------|
C|-0---0----0---------0---0-00--------0-0-1-1-111//-----------------------------|
   d d u d  d         d d u dd
   PM------PM         PM----PM        P-M        Slide to 8's below.

D|------------------------------------------------------------------------------|
A|------------------------------------------------------------------------------|
F|------------------------------------------------------------------------------|
C|-8-8-8-8-8-8-8-8-8-8-8-8-8-8-8--8-7--8-7-9-7--8-7-9-7-8-7---------------------|
G|-8-8-8-8-8-8-8-8-8-8-8-8-8-8-8--8-7--8-7-9-7--8-7-9-7-8-7---------------------|
C|-8-8-8-8-8-8-8-8-8-8-8-8-8-8-8--8-7--8-7-9-7--8-7-9-7-8-7---------------------|

Listen hard above for timing here <----------------------->

That's it!



2.Inside the Fire

Tuning: Drop C (C G C F A D)

Intro:

D|-------------------------|
A|-------------------------|
F|-------------------------|
C|--7\----7777-----77------|
G|--7\----7777-----77------|
C|--7\----7777-----77------|


For the keyboard part I just use a wah and play.

G|--0-0-12-0-0--000-0-1-0|


Main Riff
x2
D|---------------------------------------------------------------|
A|---------------------------------------------------------------|
F|---------------------------------------------------------------|
C|---------------------------------------------------------------|
G|3-0-0-0-0-8-0-0-7-0-0-0-0-3-0-0-3-0-0-0-0-8-0-0-7-0-0-3-0-1-0-1|
C|---------------------------------------------------------------|


Verse
x2
D|----------------------------------------------------------------|
A|----------------------------------------------------------------|
F|----------------------------------------------------------------|
C|----------------------------------------------------------------|
G|-3-0-0-0-0-8-0-0-7-0-0-0-0-3-0-0-3-0-0-0-0-8-0-0-7-0-0-3-0-1-0-1|
C|----------------------------------------------------------------|
PM - + + + + - + + - + + + + - + + - + + + + - + + - + + - - - - -

Then play Main Riff x2

Pre-chorus bridge

D|-------------------------------------------------------------------|
A|-------------------------------------------------------------------|
F|-------------------------------------------------------------------|
C|-----------------------------------------------------------x-x-x-x-|
G|-----------------------------------------------------------x-x-x-x-|
C|-333-000-555-222-333-000-555-222-333-000-555-222-333-000-5-x-x-x-x-|

Chorus
x2
D|-------------------------------------------------------------------------|
A|-------------------------------------------------------------------------|
F|------12-------10------12------------------12-------10-999999999---------|
C|-7-7--12-10-12-10-7-7--12-10-12-10h12-7-7--12-10-12-10-999999999-5555555-|
G|-7-7--10-10-12-8--7-7--10-10-12-10h12-7-7--10-10-12-8--777777777-5555555-|
C|-7-7-----10-12----7-7-----10-12-10h12-7-7-----10-12--------------5555555-|

Main Riff x2
Verse x2
Main Riff x2
Pre-chorus bridge x1
Chorus x2

Bridge to solo

Guitar 1
D|-----------------------------------------|
A|-----------------------------------------|
F|2222---------99-88-4444----------3-------|
C|2222---------99-88-4444----------3-333---|
G|0000---------77-66-2222----------1-333---|
C|-----------------------------------333---|

Guitar 2
D|-----------------------------------------|
A|-----------------------------------------|
F|2222-222-2---------4444-4/5-3-3-33-------|
C|2222-222-2---22-11-4444-4/5-3-3-33-333---|
G|0000-000-0---22-11-2222-2/3-1-1-11-333---|
C|---------2-0-22-11-----------------333---|

Solo
Guitar 1
D|------------------------------------------------------------------|
A|------------------------------------------------------------------|
F|-8\7b8-7p5-5h7-4-4h5-3-3*----------555-444------555-444-555-7777*-|
C|----------7----------------555-777--------55-77-------------------|
G|------------------------------------------------------------------|
C|------------------------------------------------------------------|
*=pinch harmonic

Guitar 1
tremolo picking
D|-8-00000-7-00000-3-00000-5-00000-8-000-7-000-----|
A|-------------------------------------------------|
F|-------------------------------------------------|
C|-------------------------------------------------|
G|-------------------------------------------------|

Guitar 1
tremolo picking
D|-3-00000-5-00000-3-000-8-000-7-000-10-000-10-000-|
A|-------------------------------------------------|
F|-------------------------------------------------|
C|-------------------------------------------------|
G|-------------------------------------------------|
C|-------------------------------------------------|

Guitar 1
D|-10-8-0000-10-8-00--12p8h10p8---12p8h10p8----12p8h10p8----12p8h10------15-----15-----15-----15/20|
A|-----------------------------10----------10------------10---------15b17--15b17--15b17--15b17-----|
F|-------------------------------------------------------------------------------------------------|
C|-------------------------------------------------------------------------------------------------|
G|-------------------------------------------------------------------------------------------------|
C|-------------------------------------------------------------------------------------------------|

Guitar 2
x2
D|-----------------------------------------------------------------------------|
A|-----------------------------------------------------------------------------|
F|-2222-2-2-2---------4444-4/5-3-3-33------2222-2-2-2---------4444-444-7-77777-|
C|-2222-2-2-2---22-11-4444-4/5-3-3-33-333--2222-2-2-2---22-11-4444-444-7-77777-|
G|-0000-0-0-0---22-11-2222-2/3-1-1-11-333--0000-0-0-0---22-11-2222-222-5-55555-|
C|----------2-0-22-11-----------------333-----------2-0-22-11------------------|

Sweet lick

D|-----------------------------------------------------------------------------------|
A|-----------------------------------------------------------------------------------|
F|----------------------------------------------------------------------11--11-14-11-|
C|-------------10-------------------10-------------------10--10-13-10-13--13---------|
G|13-12-0-10-12--12-10-12-13-0-10-12--12-10-13-12-0-10-12--12------------------------|
C|-----------------------------------------------------------------------------------|

D|-----------------------------------------------------------------------------------|
A|-----------------------------------------------------------------------------------|
F|----------------------------------------------------------------------11--11-------|
C|-------------10-------------------10-------------------10--10-13-10-13--13--13-10--|
G|13-12-0-10-12--12-10-12-13-0-10-12--12-10-13-12-0-10-12--12------------------------|
C|-----------------------------------------------------------------------------------|

D|-----------------------------------------------------------------------------------|
A|-----------------------------------------------------------------------------------|
F|----------------------------------------------------------------------11--11-14-11-|
C|-------------10-------------------10-------------------10--10-13-10-13--13---------|
G|13-12-0-10-12--12-10-12-13-0-10-12--12-10-13-12-0-10-12--12------------------------|
C|-----------------------------------------------------------------------------------|

D|--------------------------------------------------------------|
A|--------------------------------------------------------------|
F|--------------------------------------------------------------|
C|-------------10-------------------10-------------------10--10-|
G|13-12-0-10-12--12-10-12-13-0-10-12--12-10-13-12-0-10-12--12---|
C|--------------------------------------------------------------|

Sweet ass lick
Guitar 1
D|---------------------------------------14--14-17-14-17/20-20-20---|
A|------------------------13--13-16-13-16--16-----------------------|
F|---------11--11-14-11-14--14--------------------------------------|
C|-13-10-13--13-----------------------------------------------------|
G|------------------------------------------------------------------|
C|------------------------------------------------------------------|

Guitar 2
D|-----------------------------------11--11-14-11-14/17-17-17-------|
A|--------------------10--10-13-10-13--13---------------------------|
F|--------8--8-11-8-11--11------------------------------------------|
C|-10-7-10-10-------------------------------------------------------|
G|------------------------------------------------------------------|
C|------------------------------------------------------------------|

Chorus x2
Main riff x4

End with

D|--|
A|--|
F|2-|
C|2-|
G|0-|
C|--|


-------------------------------------------------------------------------------
	3.		     "Deceiver" --- Disturbed
-------------------------------------------------------------------------------



Tabbed by: [travis]



Tuning: Half Step Down = Eb Ab Db Gb Bb Eb (low to high)



Legend: 

... = palm mute
h = hammer on
p = pull off
b = bend
w = wammy bar
+ = steps pulled up on whammy bar
- = steps pushed down on whammy bar
T = tap
() = bring bent note back to normal/note not picked
/ = slide up
\ = slide down
h/ = pick once
p\ = pick once
h/p\ = pick once
1 = whole step
.5 = half step
.25 = quarter step
* = harmonic
gb = gradual bend
__ = hold bend
~ = vibrato




Guitar 1:
eb|----------------------------------------------------------------------------------------------|
Bb|----------------------------------------------------------------------------------------------|
Gb|----------------------------------------------------------------------------------------------|
Db|-------3-2------------------------3-2--------------------------------3-2----------------------|
Ab|----------3---6---5-------------------3-6-5--------------3-3-3-----------3---6---5------------|
Eb|-3-0-0------0---0---6-0-5-6-0-1-3-----------6-5-0-6-0-5-0------3-0-0-------0---0--6-0-5-6-0-1-|
    .............................................................

Guitar 2: raise the harmonic with the whammy bar.
                                                                +1_______
eb|-12*~~~~~~~~~~~~~5*~~~~~---------------------------------------------------|
Bb|------------------------5~~~~~~~~~-----------------------------------------|
Gb|----------------------------------3*~~~~~~~~~~~~~5*~~~~~~~(5*)w------(5)---|
Db|---------------------------------------------------------------------------|
Ab|---------------------------------------------------------------------------|
Eb|---------------------------------------------------------------------------|


============================================
Guitar 1:
eb|----------------------------------|
Bb|----------------------------------|
Gb|----------------------------------|
Db|---3-2---------------------5-5-5--|
Ab|-------3-6-5---------------3-3-3--|
Eb|-3-----------6-5-0-6-0-5-0--------|

Guitar 2: 
                  +1__________
eb|---------------------------|
Bb|---------------------------|
Gb|---------------------------|
Db|-5*~~~~~~~~~~(5)w----------|
Ab|---------------------------|
Eb|---------------------------|

=============================================
Guitar 1:
eb|--------------------------------------------------------------------|
Bb|--------------------------------------------------------------------|
Gb|--------------------------------------------------------------------|
Db|-------10-9------8---7---------------10-9---8-7---------------5-5-5-|
Ab|-5-----8--7-10---6---5-8---7-8---3-5-8--7---6-5-8-7---8---7---3-3-3-|
Eb|-3-0-0------8--0---0---6-0-5-6-0-1-3------8-----6-5-0-6-0-5-0-------|
      ....        .   .     .     .          .         .   .   .

Guitar 2: the 12th fret is a tapped harmonic.
                T
   ____________________  +.5________+1_________________________________
eb|--------------------------------------------------------------------|
Bb|--------------------------------------------------------------------|
Gb|--------------------------------------------------------------------|
Db|-(5)~~~~~~~~~12*~~~~(12)w~~~~~(12)w~~~~~~~~~~~~~~~~~~~~~~~~~~~~~~~~~|
Ab|--------------------------------------------------------------------|
Eb|--------------------------------------------------------------------|

==============================================
"You can't deny it."
Guitar 1:
eb|--------------------------------------------------------------------|
Bb|--------------------------------------------------------------------|
Gb|--------------------------------------------------------------------|
Db|-------10-9------8---7---------------10-9---8-7---------------5-5-5-|
Ab|-5-----8--7-10---6---5-8---7-8---3-5-8--7---6-5-8-7---8---7---3-3-3-|
Eb|-3-0-0------8--0---0---6-0-5-6-0-1-3------8-----6-5-0-6-0-5-0-------|
      ....        .   .     .     .          .         .   .   .

===============================================
Guitar 1:

eb|------------------------------------------|
Bb|------------------------------------------|
Gb|------------------------------------------|
Db|----------2-------2-----2-------2-------2-|
Ab|----------2-------2-----2-------2-------2-|
Eb|-0-0-0-0--0--0-0--0--0--0--0-0--0--0-0--0-|
    .......     ...     .     ...     ...

================================================
Guitar 1:
eb|-------------------------------------------------------------------|
Bb|-------------------------------------------------------------------|
Gb|-------------------------------------------------------------------|
Db|-------7-------5-------5----------------7-------5-----4------------|
Ab|-5h7---5---2-2-3-------3-----5h/7-5h7---5---2-2-3-----3------3-3-3-|
Eb|-5h7-0---0-0-0---0-0-0---0-0-3h/5-5h7-0---0-0-0---0-0----0-0-1-1-1-|
        .   .       .....   ...          .   .       ...    ...

Guitar 1:
eb|------------------------------------------------------------------|
Bb|------------------------------------------------------------------|
Gb|------------------------------------------------------------------|
Db|-------7-------5-------5------------------------------------------|
Ab|-5h7---5---2-2-3-------3-----5h/7-5-5-5-5-5-5-5-5-7-7-7-7-7-5-5-7-|
Eb|-5h7-0---0-0-0---0-0-0---0-0-3h/5-3-3-3-3-3-3-3-3-5-5-5-5-5-3-3-5-|
        .   .       .....   ...      .....

==================================================
Guitar 1:
eb|-------------------------------------------------------------------|
Bb|-------------------------------------------------------------------|
Gb|-------------------------------------------------------------------|
Db|-------7-------5-------5----------------7-------5-----4------------|
Ab|-5h7---5---2-2-3-------3-----5h/7-5h7---5---2-2-3-----3------3-3-3-|
Eb|-5h7-0---0-0-0---0-0-0---0-0-3h/5-5h7-0---0-0-0---0-0----0-0-1-1-1-|
        .   .       .....   ...          .   .       ...    ...

Guitar 1:
eb|------------------------------------------------------------------|
Bb|------------------------------------------------------------------|
Gb|------------------------------------------------------------------|
Db|-------7-------5-------5------------------------------------------|
Ab|-5h7---5---2-2-3-------3-----5h/7-5-5-5-5-5-5-5-5-7-7-7-7-7-5-5-7-|
Eb|-5h7-0---0-0-0---0-0-0---0-0-3h/5-3-3-3-3-3-3-3-3-5-5-5-5-5-3-3-5-|
        .   .       .....   ...      .....

====================================================
Chorus 1:
Guitar 1:
eb|--------------------------------------------------------------|
Bb|--------------------------------------------------------------|
Gb|--------------------------------------------------------------|
Db|-9-----------5~----------------7-----------5~-----------------|
Ab|-7--2-2--2-2-3~-------7--------4--2-2--2-2-3~--------7-----10-|
Eb|----0-0--0-0----5-7-8---8-7-8-----0-0--0-0-----5-7-8---8-7----|

Guitar 2: tremelo effect and reverb.
eb|-19--------17--------14---15---19---15---17--------14---------|
Bb|------20--------17----------------------------17--------15----|
Gb|--------------------------------------------------------------|
Db|--------------------------------------------------------------|
Ab|--------------------------------------------------------------|
Eb|--------------------------------------------------------------|

=====================================================
Guitar 1:
eb|------------------------------------------------------------------------|
Bb|------------------------------------------------------------------------|
Gb|------------------------------------------------------------------------|
Db|-9-----------5~----------------7-----5---7-5--10~--10-10-10-10-12-12----|
Ab|-7--2-2--2-2-3~-------7--------4-----4---4-4--8~~--8--8--8--8--10-10-12-|
Eb|----0-0--0-0----5-7-8---8-7-8----0-0---0-----------------------------10-|
                                    ...   .    

Guitar 2: tremelo effect and reverb.
eb|-19--------17---------------19--------17---19--------17--|
Bb|------20-------17--19---20-------20-------------20-------|
Gb|---------------------------------------------------------|
Db|---------------------------------------------------------|
Ab|---------------------------------------------------------|
Eb|---------------------------------------------------------|

======================================================
Guitar 1:
eb|--------------------------------------------------------------|
Bb|--------------------------------------------------------------|
Gb|--------------------------------------------------------------|
Db|-9-----------5~----------------7-----------5~-----------------|
Ab|-7--2-2--2-2-3~-------7--------4--2-2--2-2-3~--------7-----10-|
Eb|----0-0--0-0----5-7-8---8-7-8-----0-0--0-0-----5-7-8---8-7----|

Guitar 2: tremelo effect and reverb.
eb|-19--------17--------14---15---19---15---17--------14---------|
Bb|------20--------17----------------------------17--------15----|
Gb|--------------------------------------------------------------|
Db|--------------------------------------------------------------|
Ab|--------------------------------------------------------------|
Eb|--------------------------------------------------------------|

========================================================
Guitar 1:
eb|------------------------------------------------------------------------|
Bb|------------------------------------------------------------------------|
Gb|------------------------------------------------------------------------|
Db|-9-----------5~----------------7-----5---7-5--10~--10-10-10-10-12-12----|
Ab|-7--2-2--2-2-3~-------7--------4-----4---4-4--8~~--8--8--8--8--10-10-12-|
Eb|----0-0--0-0----5-7-8---8-7-8----0-0---0-----------------------------10-|
                                    ...   .    

Guitar 2: tremelo effect and reverb.
eb|-19--------17---------------19--------17---19--------17--|
Bb|------20-------17--19---20-------20-------------20-------|
Gb|---------------------------------------------------------|
Db|---------------------------------------------------------|
Ab|---------------------------------------------------------|
Eb|---------------------------------------------------------|

=========================================================
Break:
Guitar 1:
eb|-----------------------------------------------------------------|
Bb|-----------------------------------------------------------------|
Gb|-----------------------------------------------------------------|
Db|-------3-2-------------------------3-2---------------------------|
Ab|-----------3---6---5-------------------3-6-5---------------------|
Eb|-3-0-0-------0---0---6-0-5-6-0-1-3-----------6-5-0-6-0-5-0-8-8-8-|
    .................................               .   .   .  

==========================================================
Guitar 1:
eb|--------------------------------------------------------------------|
Bb|--------------------------------------------------------------------|
Gb|--------------------------------------------------------------------|
Db|-------10-9------8---7---------------10-9---8-7---------------5-5-5-|
Ab|-5-----8--7-10---6---5-8---7-8---3-5-8--7---6-5-8-7---8---7---3-3-3-|
Eb|-3-0-0------8--0---0---6-0-5-6-0-1-3------8-----6-5-0-6-0-5-0-------|
      ....        .   .     .     .          .         .   .   .

==========================================================
Guitar 1:
eb|------------------------------------------|
Bb|------------------------------------------|
Gb|------------------------------------------|
Db|----------2-------2-----2-------2-------2-|
Ab|----------2-------2-----2-------2-------2-|
Eb|-0-0-0-0--0--0-0--0--0--0--0-0--0--0-0--0-|
    .......     ...     .     ...     ...

==========================================================
Guitar 1:
eb|-------------------------------------------------------------------|
Bb|-------------------------------------------------------------------|
Gb|-------------------------------------------------------------------|
Db|-------7-------5-------5----------------7-------5-----4------------|
Ab|-5h7---5---2-2-3-------3-----5h/7-5h7---5---2-2-3-----3------3-3-3-|
Eb|-5h7-0---0-0-0---0-0-0---0-0-3h/5-5h7-0---0-0-0---0-0----0-0-1-1-1-|
        .   .       .....   ...          .   .       ...    ...

Guitar 1:
eb|------------------------------------------------------------------|
Bb|------------------------------------------------------------------|
Gb|------------------------------------------------------------------|
Db|-------7-------5-------5------------------------------------------|
Ab|-5h7---5---2-2-3-------3-----5h/7-5-5-5-5-5-5-5-5-7-7-7-7-7-5-5-7-|
Eb|-5h7-0---0-0-0---0-0-0---0-0-3h/5-3-3-3-3-3-3-3-3-5-5-5-5-5-3-3-5-|
        .   .       .....   ...      .....

==================================================
Guitar 1:
eb|-------------------------------------------------------------------|
Bb|-------------------------------------------------------------------|
Gb|-------------------------------------------------------------------|
Db|-------7-------5-------5----------------7-------5-----4------------|
Ab|-5h7---5---2-2-3-------3-----5h/7-5h7---5---2-2-3-----3------3-3-3-|
Eb|-5h7-0---0-0-0---0-0-0---0-0-3h/5-5h7-0---0-0-0---0-0----0-0-1-1-1-|
        .   .       .....   ...          .   .       ...    ...

Guitar 1:
eb|------------------------------------------------------------------|
Bb|------------------------------------------------------------------|
Gb|------------------------------------------------------------------|
Db|-------7-------5-------5------------------------------------------|
Ab|-5h7---5---2-2-3-------3-----5h/7-5-5-5-5-5-5-5-5-7-7-7-7-7-5-5-7-|
Eb|-5h7-0---0-0-0---0-0-0---0-0-3h/5-3-3-3-3-3-3-3-3-5-5-5-5-5-3-3-5-|
        .   .       .....   ...      .....

====================================================
Chorus 1:
Guitar 1:
eb|--------------------------------------------------------------|
Bb|--------------------------------------------------------------|
Gb|--------------------------------------------------------------|
Db|-9-----------5~----------------7-----------5~-----------------|
Ab|-7--2-2--2-2-3~-------7--------4--2-2--2-2-3~--------7-----10-|
Eb|----0-0--0-0----5-7-8---8-7-8-----0-0--0-0-----5-7-8---8-7----|

Guitar 2: tremelo effect and reverb.
eb|-19--------17--------14---15---19---15---17--------14---------|
Bb|------20--------17----------------------------17--------15----|
Gb|--------------------------------------------------------------|
Db|--------------------------------------------------------------|
Ab|--------------------------------------------------------------|
Eb|--------------------------------------------------------------|

=====================================================
Guitar 1:
eb|------------------------------------------------------------------------|
Bb|------------------------------------------------------------------------|
Gb|------------------------------------------------------------------------|
Db|-9-----------5~----------------7-----5---7-5--10~--10-10-10-10-12-12----|
Ab|-7--2-2--2-2-3~-------7--------4-----4---4-4--8~~--8--8--8--8--10-10-12-|
Eb|----0-0--0-0----5-7-8---8-7-8----0-0---0-----------------------------10-|
                                    ...   .    

Guitar 2: tremelo effect and reverb.
eb|-19--------17---------------19--------17---19--------17--|
Bb|------20-------17--19---20-------20-------------20-------|
Gb|---------------------------------------------------------|
Db|---------------------------------------------------------|
Ab|---------------------------------------------------------|
Eb|---------------------------------------------------------|

======================================================
Guitar 1:
eb|--------------------------------------------------------------|
Bb|--------------------------------------------------------------|
Gb|--------------------------------------------------------------|
Db|-9-----------5~----------------7-----------5~-----------------|
Ab|-7--2-2--2-2-3~-------7--------4--2-2--2-2-3~--------7-----10-|
Eb|----0-0--0-0----5-7-8---8-7-8-----0-0--0-0-----5-7-8---8-7----|

Guitar 2: tremelo effect and reverb.
eb|-19--------17--------14---15---19---15---17--------14---------|
Bb|------20--------17----------------------------17--------15----|
Gb|--------------------------------------------------------------|
Db|--------------------------------------------------------------|
Ab|--------------------------------------------------------------|
Eb|--------------------------------------------------------------|

========================================================
Guitar 1:
eb|------------------------------------------------------------------------|
Bb|------------------------------------------------------------------------|
Gb|------------------------------------------------------------------------|
Db|-9-----------5~----------------7-----5---7-5--10~--10-10-10-10-12-12----|
Ab|-7--2-2--2-2-3~-------7--------4-----4---4-4--8~~--8--8--8--8--10-10-12-|
Eb|----0-0--0-0----5-7-8---8-7-8----0-0---0-----------------------------10-|
                                    ...   .    

Guitar 2: tremelo effect and reverb.
eb|-19--------17---------------19--------17---19--------17--|
Bb|------20-------17--19---20-------20-------------20-------|
Gb|---------------------------------------------------------|
Db|---------------------------------------------------------|
Ab|---------------------------------------------------------|
Eb|---------------------------------------------------------|

=========================================================
Guitar 1:
eb|--------------------------------|
Bb|--------------------------------|
Gb|--------------------------------|
Db|-2-2-2-2-x-x-2-2-2-2-x-x-2-2-2--|
Ab|-2-2-2-2-x-x-2-2-2-2-x-x-2-2-2--|
Eb|-0-0-0-0-x-x-0-0-0-0-x-x-0-0-0--|
            ...         ...

=========================================================
Interlude:
Guitar 1:
eb|-----------------------------------------------------------------------------------------------|
Bb|------------------------------12---------------------------------------12----------------------|
Gb|------------11-------14-11-------13----14-11---------------11----14-11----13----14-11----------|
Db|---12-11-------12-11-------12-------14-------12---12-11-------12-------------14-------12-11-12-|
Ab|-9-------12-------------------------------------9-------12-------------------------------------|
Eb|-----------------------------------------------------------------------------------------------|

Guitar 2: I think this is right.
eb|-----------------------------------------------------------------|
Bb|-----------------------------------------------------------------|
Gb|---------------2-----4-----------------------2---4---------------|
Db|---------4-------4-----6---7-4-----------4-----4---6---7-4-------|
Ab|---5-4-0---5-4-----5-----7-----5---5-4-0---5---------7-----5-4-5-|
Eb|-2-------------------------------2-------------------------------|
    ...............................................................

=========================================================
Guitar 1:
eb|------------------------------------------------|
Bb|------------------------------12----------------|
Gb|------------11-------14-11-------13----14-11----|
Db|---12-11-------12-11-------12-------14-------12-|
Ab|-9-------12-------------------------------------|
Eb|------------------------------------------------|

Guitar 2:
eb|---------------------------------|
Bb|---------------------------------|
Gb|---------------------4-----------|
Db|---------4-----7-4-----6---7-4---|
Ab|---5-4-0---5-4-----5-----7-----5-|
Eb|-2-------------------------------|
    ...............................

==========================================================
Guitar 1:
eb|------------------------------------------|
Bb|------------------------------------------|
Gb|----------------------------9-9-9-9-9-9-9-|
Db|-11-11-11-11-11-11-11-11-11-9-9-9-9-9-9-9-|
Ab|-11-11-11-11-11-11-11-11-11-7-7-7-7-7-7-7-|
Eb|--9--9--9--9--9--9--9--9--9---------------|


==========================================================
Guitar 1:
eb|-----------------------------------------------------------------------------------------------|
Bb|------------------------------12---------------------------------------12----------------------|
Gb|------------11-------14-11-------13----14-11---------------11----14-11----13----14-11----------|
Db|---12-11-------12-11-------12-------14-------12---12-11-------12-------------14-------12-11-12-|
Ab|-9-------12-------------------------------------9-------12-------------------------------------|
Eb|-----------------------------------------------------------------------------------------------|

Guitar 2: I think this is right.
eb|-----------------------------------------------------------------|
Bb|-----------------------------------------------------------------|
Gb|---------------2-----4-----------------------2---4---------------|
Db|---------4-------4-----6---7-4-----------4-----4---6---7-4-------|
Ab|---5-4-0---5-4-----5-----7-----5---5-4-0---5---------7-----5-4-5-|
Eb|-2-------------------------------2-------------------------------|
    

=========================================================
Guitar 1:
eb|------------------------------------------------|
Bb|------------------------------12----------------|
Gb|------------11-------14-11-------13----14-11----|
Db|---12-11-------12-11-------12-------14-------12-|
Ab|-9-------12-------------------------------------|
Eb|------------------------------------------------|

Guitar 2:
eb|---------------------------------|
Bb|---------------------------------|
Gb|---------------------4-----------|
Db|---------4-----7-4-----6---7-4---|
Ab|---5-4-0---5-4-----5-----7-----5-|
Eb|-2-------------------------------|
 
==========================================================
Guitar 1:
eb|------------------------------------------|
Bb|------------------------------------------|
Gb|----------------------------9-9-9-9-9-9-9-|
Db|-11-11-11-11-11-11-11-11-11-9-9-9-9-9-9-9-|
Ab|-11-11-11-11-11-11-11-11-11-7-7-7-7-7-7-7-|
Eb|--9--9--9--9--9--9--9--9--9---------------|

==========================================================
Guitar 1:
eb|---------------------------------------------------------------------|
Bb|---------------------------------------------------------------------|
Gb|---------------------------------------------------------------------|
Db|---------------------------------------------------------2-2-2-2-4-4-|
Ab|-5p/4---------5p\4-----5p\4-----5p\4-5p\2---------5p\4---0-0-0-0-2-2-|
Eb|-3p/2-2-2-2-2-3p\2-2-2-3p\2-2-2-3p\2-3p\4-2-2-2-2-3p\2-2-------------|
         .......      ...      ...           .......      .

==========================================================
Guitar 1:
eb|--------------------------------------------------------------|
Bb|--------------------------------------------------------------|
Gb|--------------------------------------------------------------|
Db|-9-----------5~----------------7-----------5~-----------------| ------------|
Ab|-7--2-2--2-2-3~-------7--------4--2-2--2-2-3~--------7-----10-|             |
Eb|----0-0--0-0----5-7-8---8-7-8-----0-0--0-0-----5-7-8---8-7----|             |
                                       					       |
Guitar 1:                                                                      | x2
eb|------------------------------------------------------------------------|   |
Bb|------------------------------------------------------------------------|   |
Gb|------------------------------------------------------------------------|   |
Db|-9-----------5~----------------7-----5---7-5--10~--10-10-10-10-12-12----| --|
Ab|-7--2-2--2-2-3~-------7--------4-----4---4-4--8~~--8--8--8--8--10-10-12-|
Eb|----0-0--0-0----5-7-8---8-7-8----0-0---0-----------------------------10-|
                                    ...   .

Guitar 2: tremelo effect and reverb.
eb|-19--------17--------14---15---19---15---17--------14---------|
Bb|------20--------17----------------------------17--------15----|
Gb|--------------------------------------------------------------|
Db|--------------------------------------------------------------| ---------|
Ab|--------------------------------------------------------------|          |
Eb|--------------------------------------------------------------|          |
									    |
Guitar 2: tremelo effect and reverb.                                        | x2
eb|-19--------17---------------19--------17---19--------17--|               |
Bb|------20-------17--19---20-------20-------------20-------|               |
Gb|---------------------------------------------------------| --------------|
Db|---------------------------------------------------------|
Ab|---------------------------------------------------------|
Eb|---------------------------------------------------------|

===========================================================
Guitar 1:
eb|-------------------------------------------------------------|
Bb|-------------------------------------------------------------|
Gb|-4-----------------------------------------------------------|
Db|-2-----------5~~---------------7-----------5~~-------------5-|
Ab|---2-2-2-2-2-3~~-------7-------4-2-2-2-2-2-3~~-------7-------|
Eb|---0-0-0-0-0-----5-7-8---8-7-8---0-0-0-0-0-----5-7-8---8-7---|
      .........                     .........

Guitar 2: tremelo effect and reverb.
eb|-19--------17--------14---15---19---15---17--------14---------|
Bb|------20--------17----------------------------17--------15----|
Gb|--------------------------------------------------------------|
Db|--------------------------------------------------------------|
Ab|--------------------------------------------------------------|          
Eb|--------------------------------------------------------------|

=============================================================
Guitar 1:
eb|-----------------------------------------------------------------|
Bb|-----------------------------------------------------------------|
Gb|-4---------------------------------------------5~~-5-5-5-5-7-7---|
Db|-2-----------5~~---------------7-----5---7--5--3~~-3-3-3-3-5-5-7-|
Ab|---2-2-2-2-2-3~~-------7-------4-----4---4--4------------------5-|
Eb|---0-0-0-0-0-----5-7-8---8-7-8---0-0---0-------------------------|
      .........                     ...   .


Guitar 2: tremelo effect and reverb.                                        
eb|-19--------17---------------19--------17---19--------17--|               
Bb|------20-------17--19---20-------20-------------20-------|               
Gb|---------------------------------------------------------|
Db|---------------------------------------------------------|
Ab|---------------------------------------------------------|
Eb|---------------------------------------------------------|

==============================================================
Guitar 1:
eb|-------------------------------------------------------------|
Bb|-------------------------------------------------------------|
Gb|-4-----------------------------------------------------------|
Db|-2-----------5~~---------------7-----------5~~-------------5-|
Ab|---2-2-2-2-2-3~~-------7-------4-2-2-2-2-2-3~~-------7-------|
Eb|---0-0-0-0-0-----5-7-8---8-7-8---0-0-0-0-0-----5-7-8---8-7---|
      .........                     .........

==============================================================
Guitar 1:
eb|-----------------------------------------------------------------|
Bb|-----------------------------------------------------------------|
Gb|-4---------------------------------------------5~~-5-5-5-5-7-7---|
Db|-2-----------5~~---------------7-----5---7--5--3~~-3-3-3-3-5-5-7-|
Ab|---2-2-2-2-2-3~~-------7-------4-----4---4--4------------------5-|
Eb|---0-0-0-0-0-----5-7-8---8-7-8---0-0---0-------------------------|
      .........                     ...   .



4.The Night

Legend

\&/= slide
* = palm mute
p&h = pull-off &hammer-on
T = tap
v = vibrato
b = bend
S = Sweep
a= Pinch/Artificial Harmonic (Squeal)

Some of the patterns change throughout the song but i'm too lazy to tab them, jut listen 
the song and you'll know.

Intro:

Guitar 1

|-----------------------------------------8------|
|-----------------------------------5-6-8--------|
|---------------------------------7--------------|
|-------------8/7-----------8/7------------------|
|---0-6/5-------------6/5------------------------|
|---0------0-------0-----------------------------|

|--------------------------------------------------------|
|--------------------------------------------------------|
|--------------------------------------------------------|
|---8---------8---------8-----7---------7---------7------|
|---6-0-0-0-0-6-0-0-0-0-6-0-0-6-0-0-0-0-6-0-0-0-0-6-0-0--|
|-----0-0-0-0---0-0-0-0---0-0---0-0-0-0---0-0-0-0---0-0--|
      * * * *   * * * *   * *   * * * *   * * * *   * *

|------------------------------------------------|
|-----------------------------------5-6-8-9v-----|
|---------------------------------7--------------|
|---0---------8/7-----------8/7------------------|
|---0-6/5-------------6/5------------------------|
|---0------0-------0-----------------------------|

|--------------------------------------------------------|
|--------------------------------------------------------|
|--------------------------------------------------------|
|---8---------8---------8-----7---------7---------7------|
|---6-0-0-0-0-6-0-0-0-0-6-0-0-6-0-0-0-0-6-0-0-0-0-6-0-0--|
|-----0-0-0-0---0-0-0-0---0-0---0-0-0-0---0-0-0-0---0-0--|
      * * * *   * * * *   * *   * * * *   * * * *   * *

Guitar 2:


|------------------------------------------------|
|------------------------------------------------|
|------------------------------------------------|
|---0--------------------------------------------|
|---0--------------------------------------------|
|---0--------------------------------------------|

|--------------------------------------------------------|
|--------------------------------------------------------|
|--------------------------------------------------------|
|--------------------------------------------------------|
|-----0-0-0-0---0-0-0-0---0-0---0-0-0-0---0-0-0-0---0-0--|
|-----0-0-0-0---0-0-0-0---0-0---0-0-0-0---0-0-0-0---0-0--|
      * * * *   * * * *   * *   * * * *   * * * *   * *

|--------------------------------------------------|
|--------------------------------------------------|
|--------------------------------------------------|
|---0-------0-------0------------------------------|
|---0-------0-------0------------------------------|
|---0-------0-------0------------------------------|

|--------------------------------------------------------|
|--------------------------------------------------------|
|--------------------------------------------------------|
|--------------------------------------------------------|
|-----0-0-0-0---0-0-0-0---0-0---0-0-0-0---0-0-0-0---0-0--|
|-----0-0-0-0---0-0-0-0---0-0---0-0-0-0---0-0-0-0---0-0--|
      * * * *   * * * *   * *   * * * *   * * * *   * *

Verse Part 1:

Both Guitars play Guitar 1

Verse Part 2:

|---------------------------------|
|---------------------------------|
|---------------------------------|
|-0-00-000-0-000-0-000-0-111-3333-|
|-0-00-000-0-000-0-000-0-111-3333-|
    ** *** * *** * *** * *** ****
|---------------------------------|
|---------------------------------|
|---------------------------------|
|-0-00-000-0-000-0-000-0-333-1111-|
|-0-00-000-0-000-0-000-0-333-1111-|
  * ** *** * *** * *** * *** ****

|---------------------------------|
|---------------------------------|
|---------------------------------|
|-0-00-000-0-000-0-000-0-111-3333-|
|-0-00-000-0-000-0-000-0-111-3333-|
    ** *** * *** * *** * *** ****
|---------------------------------|
|---------------------------------|
|---------------------------------|
|-0-00-000-0-000-0-000-0-333-1111-|
|-0-00-000-0-000-0-000-0-333-1111-|
  * ** *** * *** * *** * *** ****

Pre-Chorus:

|------------------------------------------|
|------------------------------------------|
|------------------------------------------|
|-6665-55-6665-55-5-55-5-6565-555-666555888|
|-6665-55-6665-55-5-55-5-6565-555-666555888|
       **      **   **        ***
|------------------------------------------|
|------------------------------------------|
|------------------------------------------|
|-6665-55-6665-55-5-55-5-6565-555-6--5--3--|
|-6665-55-6665-55-5-55-5-6565-555-6--5--3--|
       **      **   **        ***

Chorus:
|------------------------------------------------------|
|------------------------------------------------------|
|-----------------3333-3333-1--------------------------|
|-5555-5555-5-333-1111-1111-1-333----------------------|
|-5555-5555-5-333-1111-1111-1-111-8888-8888-8-8810-----|
|-5555-5555-5-333-1111-1111-1-111-8888-8888-8-8810-----|

|-----------------------|
|-----------------------|
|-2---------2---------5-|
|-0---------0---------3-|
|-0-0-0-0-0-0-0-0-0-0-3-|
|-0-0-0-0-0-0-0-0-0-0-3-|
    * * * *   * * * *
|------------------------------------------------------|
|------------------------------------------------------|
|-----------------3333-3333-1--------------------------|
|-5555-5555-5-333-1111-1111-1-333----------------------|
|-5555-5555-5-333-1111-1111-1-111-8888-8888-8-8810-----|
|-5555-5555-5-333-1111-1111-1-111-8888-8888-8-8810-----|

|-------------------------|
|-------------------------|
|-------------------------|
|-10-10-10-10-10-10-10-10-|
|-10-10-10-10-10-10-10-10-|
   *  *  *  *  *

play Intro again

Then Play Verse Part 1 again

Verse Part 2 Slight variation:

|---------------------------------|
|---------------------------------|
|---------------------------------|
|-0-00-000-0-000-0-000-0-111-3333-|
|-0-00-000-0-000-0-000-0-111-3333-|
    ** *** * *** * *** * *** ****
|---------------------------------|
|---------------------------------|
|---------------------------------|
|-0-00-000-0-000-0-000-0-333-1111-|
|-0-00-000-0-000-0-000-0-333-1111-|
  * ** *** * *** * *** * *** ****

|---------------------------------|
|---------------------------------|
|---------------------------------|
|-0-00-000-0-000-0-000-0-111-3333-|
|-0-00-000-0-000-0-000-0-111-3333-|
    ** *** * *** * *** * *** ****
|------------------------------------|
|------------------------------------|
|-7-----8----7----5----7-------------|
|-5-----6----5----3----5-00000-003311|
|---000---00---00---00---00000-003311|
    ***   **   **   **   ***** ******

Play Prechorus Again

Play Chorus Again

Solo:

Guitar 2: Plays this behind solo

|---------------------------------|
|---------------------------------|
|---------------------------------|
|-0-00-000-0-000-0-000-0-000-0000-|
|-0-00-000-0-000-0-000-0-000-0000-|
    ** *** * *** * *** * *** ****

|--------------------------------------------------------|
|--------------------------------------------------------|
|--------------------------------------------------------|
|---8---------8---------8-----7---------7---------7------|
|---6-0-0-0-0-6-0-0-0-0-6-0-0-6-0-0-0-0-6-0-0-0-0-6-0-0--|
|-----0-0-0-0---0-0-0-0---0-0---0-0-0-0---0-0-0-0---0-0--|
      * * * *   * * * *   * *   * * * *   * * * *   * *

Guitar 1:

|----------------------------------------------------------------------------|
|----------------------------------------------------------------------------|
|----------------------------------------------------------------------------|
|-/1312-10-12-8-10-/1312-1012-810-/1312-10-12-8-10-7-8-7-5-------------------|
|----------------------------------------------------------------------------|
|----------------------------------------------------------------------------|

|----------------------------------------------------------------------------------------|
|----------------------------------------------------------------------------------------|
|-------15----14b&a------15----14b&a---------------15----14b&a-------------10-11-10------|
|-/1312----12-------1312----12-------13121012-1312----12-------1312--12-13----------13-12|
|----------------------------------------------------------------------------------------|
|----------------------------------------------------------------------------------------|

|------------------------------------------------------------------------|
|----------------------------------------------------------141514--------|
|-------------------------------------------14151412----12--------151415-|
|-10-12----10-12----10-12----10-12-/15-1312----------13------------------|
|-------12-------12-------12---------------------------------------------|
|------------------------------------------------------------------------|

------------------------------15b-13-15v--|
1415-171817151415171817151415-------------|
------------------------------------------|
------------------------------------------|
------------------------------------------|
------------------------------------------|


|-----15p13----17p13-15p13----17p13-15p13----17p13-15p13----17p13-15p13----17p13-15p13-|
|--15-------15-------------15-------------15-------------15-------------15-------------|
|--------------------------------------------------------------------------------------|
|--------------------------------------------------------------------------------------|
|--------------------------------------------------------------------------------------|
|--------------------------------------------------------------------------------------|

|--------------------------------------------------------------|
|-151515151515-171717171717-181818181818-202020202020-1818-1717|
|--------------------------------------------------------------|
|--------------------------------------------------------------|
|--------------------------------------------------------------|
|--------------------------------------------------------------|

|-20b-20-20-20-20-20-20-20-20-20p17-----17-----17----17----17------------|
|-----------------------------------20b----20b----20b---20b---20b--18v---|
|------------------------------------------------------------------------|
|------------------------------------------------------------------------|
|------------------------------------------------------------------------|
|------------------------------------------------------------------------|

Sweeping Part:                       Tapping Part:
|-----1720p17-------------------------131722-131722-131722-1317221713-----|
|---18-------18---------182018----------------------------------------15--|
|-17-----------17-----17------17------------------------------------------|
|----------------1917-----------17----------------------------------------|
|---------------------------------17--------------------------------------|
|-------------------------------------------------------------------------|

|----------------------13-------18b-17-16-15-13-15-15b13----13-15-13v------------|
|------------------13b----13b----------------------------15----------------------|
|-----10-12-12b-10---------------------------------------------------------------|
|--12----------------------------------------------------------------------------|
|--------------------------------------------------------------------------------|
|--------------------------------------------------------------------------------|

|-----------------------|
|-----------------------|
|-----------------------|
|--0-3-5-5a3---3--------|
|------------5---5-3-0--|
|-----------------------|

Last Note of Solo: Played over chorus

|-----------------------|
|-----------------------|
|-----------------------|
|-----------------------|
|--5v-------------------|
|-----------------------|

Play Chorus X2 with slight variation in the ending of first chorus, same notes but 
pattern. Easy to work out though.

Outro:

|-----------------------------------------8------|
|-----------------------------------5-6-8--------|
|---------------------------------7--------------|
|---0---------8/7-----------8/7------------------|
|---0-6/5-------------6/5------------------------|
|---0------0-------0-----------------------------|

|------------------------------------------------|
|-----------------------------------5-6-8--------|
|---------------------------------7-------9------|
|---0---------8/7-----------8/7------------------|
|---0-6/5-------------6/5------------------------|
|---0------0-------0-----------------------------|

|-----------------------------------------8------|
|-----------------------------------5-6-8--------|
|---------------------------------7--------------|
|---0---------8\7-----------8/7------------------|
|---0-6/5-------------6/5------------------------|
|---0------0-------0-----------------------------|

|------------------------------------------------|
|-----------------------------------5-6-8--------|
|---------------------------------7-------9\-----|
|---0---------8/7-----------8/7------------------|
|---0-6/5-------------6/5------------------------|
|---0------0-------0-----------------------------|



5.Perfect Insanity

Tuning: Eb Ab Db Gb Bb Eb aka (D# G# C# F# A# D#)

Intro:

Eb|-----------------------|
Bb|-----------------------|
Gb|-----------------------|
Db|-----------------------|
Ab|---12\ slide down -----|
Eb|---12\ slide down -----|

Intro 1:
Eb|--------------------------------------------------------------------------|
Bb|--------------------------------------------------------------------------|
Gb|--------------------------------------------------------------------------|
Db|--2-2-2-------------------------------------------------------------------|
Ab|--2-2-2-----5h7-----3-2------3/5----5-2-------5h7----3-2------------------|
Eb|--0-0-0--0-------0--1-0--0-0-----0--3-0--0-0------0--1-0--0-0-0-0-0-0-0-0-|
PM          .       .       . .     .       . .      .       . . . . . . . .

When David does his "ow ow ow" sound, do this sliding harmonic
Intro 2:
Eb|-------------------------|
Bb|-------------------------|
Gb|-------------------------|
Db|-------------------------|
Ab|-------------------------|
Db|--<2>-/-<3>-/-<4>-/-<5>--|


Intro 3: This riff just has a different ending.  Notice the quick triplet palm mutes at 
end
Eb|------------------------------------------------------------------------|
Bb|------------------------------------------------------------------------|
Gb|------------------------------------------------------------------------|
Db|--2-2-2-----------------------------------------------------------------|
Ab|--2-2-2-----5h7-----3-2------3/5----5-2-------5h7----3-2----------------|
Eb|--0-0-0--0-------0--1-0--0-0-----0--3-0--0-0------0--1-0--000-00-000-0--|
PM          .       .       . .     .       . .      .       ... .. ... .

Verse 1:

Eb|----------------------------------------------------------------|
Bb|----------------------------------------------------------------|
Gb|----------------------------------------------------------------|
Db|-2--------------5-----------------------------------------------|
Ab|-2--------------3--------------4---------------3-------5--------|
Db|-0--0-0-0---0-0---0-0-0---0-0--2--0-0-0---0-0--1--0-0--3--0-0---|
PM     . . .   . .   . . .   . .     . . .   . .     . .     . .


Verse 1 continued:

Eb|----------------------------------------------------------------|
Bb|----------------------------------------------------------------|
Gb|----------------------------------------------------------------|
Db|-2--------------5-----------------------------------------------|
Ab|-2--------------3--------------4---------------5-------7--------|
Db|-0--0-0-0---0-0---0-0-0---0-0--2--0-0-0---0-0--3--0-0--5--0-0---|
PM     . . .   . .   . . .   . .     . . .   . .     . .     . .


Verse 2:

Eb|----------------------------------------------------------------|
Bb|----------------------------------------------------------------|
Gb|----------------------------------------------------------------|
Db|-2--------------5-----------------------------------------------|
Ab|-2--------------3--------------4---------------3-------5--------|
Db|-0--0-0-0-0-0-0---0-0-0-0-0-0--2--0-0-0-0-0-0--1--0-0--3--0-0---|
PM     . . . . . .   . . . . . .     . . . . . .     . .     . .


Verse 2 continued:

Eb|----------------------------------------------------------------|
Bb|----------------------------------------------------------------|
Gb|----------------------------------------------------------------|
Db|-2--------------5-----------------------------------------------|
Ab|-2--------------3--------------4---------------5-------7--------|
Db|-0--0-0-0-0-0-0---0-0-0-0-0-0--2--0-0-0-0-0-0--3--0-0--5--0-0---|
PM     . . . . . .   . . . . . .     . . . . . .     . .     . .

This is really the only part of the song that im not too sure about cause it's kinda
to hear the notes properly.  But heres a really rough idea of one of the set of notes.
Verse 2 Harmonized part:

Eb|----------15-12----15-12-------------14-10----14-10----14-10----|
Bb|-10-12-14-------14-------10-12-14-10-------12-------12----------|
Gb|----------------------------------------------------------------|
Db|----------------------------------------------------------------|
Ab|----------------------------------------------------------------|
Db|----------------------------------------------------------------|

Eb|-12-8----12-8----10-8-------------------------------------------|
Bb|------10------10------10-8--------------------------------------|
Gb|----------------------------------------------------------------|
Db|----------------------------------------------------------------|
Ab|----------------------------------------------------------------|
Db|----------------------------------------------------------------|

Bridge to Chorus:

Eb|----------------------------------------------------------------|
Bb|----------------------------------------------------------------|
Gb|----------------------------------------------------------------|
Db|------------------------------3-3-3-----------------------------|
Ab|-5-5-5-2----------------------1-1-1-2-------------------5-5-5-2-|
Db|-3-3-3-0---0-0-0-0-0-0-0-0-0--------0--0-0-0-0-0-0-0-0--3-3-3-0-|
PM            . . . . . . . . .           . . . . . . . .

Eb|-------------------------------------------|
Bb|-------------------------------------------|
Gb|-------------------------------------------|
Db|-------------------------------------------|
Ab|-------------------------------------------|
Db|-0-0-0-0-0-0-0-0---5b-5b-5b-5b-------------|
PM  . . . . . . . .

Go back to the intro and repeat everything

Bridge:

Eb|-------------------------------------------|
Bb|-------------------------------------------|
Gb|-------------------------------------------|
Db|--2~-------------x-x--------2~-------------|
Ab|--2~-------------x-x--------2~-------------|
Db|--0~-------------x-x--------0~-------------|

Eb|--0-2-3-0~------------2~-------------------|
Bb|-------------------------------------------|
Gb|-------------------------------------------|
Db|-------------------------------------------|
Ab|-------------------------------------------|
Db|-------------------------------------------|

Solo: All tapping.  The very last measure may be off by a tad

          Repeat x4
Eb|-19p15p12h15p12h15p12h15p12-|-19p15p12h15p12h15p12h20p15p12-|
Bb|----------------------------|-------------------------------|
Gb|----------------------------|-------------------------------|

          Repeat x4
Eb|-15p12p9h12p9h12p9h12p9-|-15p12p9h12p9h12p9h20p12p9-----|
Bb|------------------------|-------------------------------|
Gb|------------------------|-------------------------------|

          Repeat x2
Eb|-15p6p5h6p5h6p5h6p5-12p6p5h6p5h6p5h6p5-|-12p6p5h6p5h6p5h15p6p5h6p5h6p5-|
Bb|---------------------------------------|-------------------------------|
Gb|---------------------------------------|-------------------------------|

          Repeat x2
Eb|-6p4p3h4p3h4p3-6p4p3h4p3h4p3-6p4p3-6p4p3-6p4p3-6p4p3-6p4p3-3h4h6-6p4p3~-|
Bb|---------------------------------------|--------------------------------|
Gb|---------------------------------------|--------------------------------|


Eb|----------------------------------------------|
Bb|-----------------------12\slide down----------|
Gb|-----------------------12\slide down----------|
Db|-2-----7-9------------------------------------|
Ab|-2-----5-7---3-2------------------------------|
Db|-0-0-0-----0-1-0-0-0-0------------------------|
PM    . .     .     . . .


Ending Riff

Eb|--------------------------------------------|
Bb|--------------------------------------------|
Gb|--------------------------------------------|
Db|-2------------------------------------------|
Ab|-2-----------3-2----------------------------|
Db|-0-0-0-000-0-1-0-0-0-0-0-0-0----------------|
PM    . . ... .     . . . . . .

Eb|---------------------------------------------|
Bb|---------------------------------------------|
Gb|---------------------------------------------|
Db|-2-2-2---------------------------------------|
Ab|-2-2-2---------------------------------------|
Db|-0-0-0---------------------------------------|



6.Haunted

Tuning: Drop D and down 1/2 step (C# G# C# F# A# D#)


Intro/Verses:

D#|-----------------------------------------------------------|
A#|-----------------------------------------------------------|
F#|-----------------------------------------------------------|
C#|--9-9-9-9---9-9-9-9---9-9-9-9---9-9-9-9---5-5-5-5-7-7-7-7--|
G#|--9-9-9-9---9-9-9-9--
Добавлено: 17.06.2012
Другие материалы по этой песне:
  • Аккорды и текст

Страница создана 17.06.2012
http://primanota.ru/disturbed/indestructible-album-chords.htm
Привет, Гость.
Предлагаем пройти революционный курс по гитаре.
Подарок от PrimaNota.Ru, забирай!