PrimaNota.ru - самый крупный в мире бесплатный архив песенных текстов, аккордов, табулатур и нот


Disturbed - Haunted - текст песни, таба, драм-таба, видео

Регистрация Запомнить меня
Войти через:  Facebook Google Twitter Vk Yandex Mail.ru

Disturbed - Haunted - текст песни, таба, драм-таба, видео

Печатать
Просмотров: 335
Drop C Tuning (CGCFAD)

“Haunted” is one of my favorites from the new Disturbed album Indestructible.  Enjoy!

Intro (x2)
D|-------------------------|            D|-----------------------------|
A|-------------------------|            A|-----------------------------|
F|-------------------------|            F|-----------------------------|
C|-------------------------| x3 then    C|-----------------------------|
G|-------------------------|            G|----------*8-----------*8----|
C|---10-11-10-10-10-11-8---|            C|--13(let ring)-11(let ring)--|
                                        (*Pinch harmonics and whammy bar)
Effects Riff(x1)
D|----------------------------------------------------------------------|
A|----------------------------------------------------------------------|
F|----------------------------------------------------------------------|
C|-10-10-10-10--10-10-10-10--10-10-10-10--10-10-10-10--5-5-5-5-8-8-8-8--| x2
G|-10-10-10-10--10-10-10-10--10-10-10-10--10-10-10-10--5-5-5-5-8-8-8-8--|
C|-10-10-10-10--10-10-10-10--10-10-10-10--10-10-10-10--5-5-5-5-8-8-8-8--|
                                                       (Guitar effects)
Main riff(x3)
D|----------------------------------------------------------------------|
A|----------------------------------------------------------------------|
F|----------------------------------------------------------------------|
C|-10-10-10-10--10-10-10-10--10-10-10-10--10-10-10-10--6-6-6-6-5-5-5-5--|
G|-10-10-10-10--10-10-10-10--10-10-10-10--10-10-10-10--6-6-6-6-5-5-5-5--|
C|-10-10-10-10--10-10-10-10--10-10-10-10--10-10-10-10--6-6-6-6-5-5-5-5--|

D|----------------------------------------------------------------------|
A|----------------------------------------------------------------------|
F|----------------------------------------------------------------------|
C|-10-10-10-10--10-10-10-10--10-10-10-10--10-10-10-10--5-5-5-5-8-8-8-8--|
G|-10-10-10-10--10-10-10-10--10-10-10-10--10-10-10-10--5-5-5-5-8-8-8-8--|
C|-10-10-10-10--10-10-10-10--10-10-10-10--10-10-10-10--5-5-5-5-8-8-8-8--|

D|---------------------------------------------------------------------|
A|---------------------------------------------------------------------|
F|---------------------------------------------------------------------|
C|-13-13-13-13-13-13-13-13-15-15-15-15-11-11-11-11-11-11-11-11-8-8-8-8-|
G|-13-13-13-13-13-13-13-13-15-15-15-15-11-11-11-11-11-11-11-11-8-8-8-8-|
C|-13-13-13-13-13-13-13-13-15-15-15-15-11-11-11-11-11-11-11-11-8-8-8-8-|

Chorus(x1)
D|----------------------------------------------------------|
A|----------------------------------------------------------|
F|----------------------------------------------------------|
C|-10---10-10--5---5-5-6-8-8--10---10-10-8---8-8--13-12-13--|
G|-10---10-10--5---5-5-6-8-8--10---10-10-8---8-8--13-12-13--|
C|-10---10-10--5---5-5-6-8-8--10---10-10-8---8-8--13-12-13--|

D|-----------------------------------------------------------|
A|-----------------------------------------------------------|
F|-----------------------------------------------------------|
C|-10---10-10--5---5-5-6-8-8--13--13-12--12-12-13-12-13-8----|
G|-10---10-10--5---5-5-6-8-8--13--13-12--12-12-13-12-13-8----|
C|-10---10-10--5---5-5-6-8-8--13--13-12--12-12-13-12-13-8----|
                                                       (Let ring)

Intro Riff(x1)
Effects riff(x1)
Main riff(x2)
Chorus(x1)

Bridge/Breakdown:
D|----------------------------|
A|----------------------------|
F|----------------------------|
C|-3-5-6-5--6--5--6--5--3-5-6-| x10
G|----------------------------|
C|----------------------------|

Variation:
D|----------------------------------------------------------------------|
A|----------------------------------------------------------------------|
F|----------------------------------------------------------------------|
C|-10-10-10-10--10-10-10-10--10-10-10-10--10-10-10-10-------------------|
G|-10-10-10-10--10-10-10-10--10-10-10-10--10-10-10-10-------------------|
C|-10-10-10-10--10-10-10-10--10-10-10-10--10-10-10-10-------------------|

Main riff(x1)
Play the main riff throughout the Chorus (x1)

Outro:
D|---------------------------------------------------------|
A|--8-8---7-7--3--4--3-----1----8-8---7-7--3--4--3---------|            
F|----------------------3---------------------------3--0---| x2
C|---------------------------------------------------------|
G|---------------------------------------------------------|
C|---—-----------------------------------------------------|

End on:
D|---|
A|---|          
F|---|
C|-8-|
G|-8-|
C|-8-|
Добавлено: 06.07.2012
Другие материалы по этой песне:

Страница создана 11.03.2012
http://primanota.ru/disturbed/haunted-chords.htm
Привет, Гость.
Предлагаем пройти революционный курс по гитаре.
Подарок от PrimaNota.Ru, забирай!