PrimaNota.ru - самый крупный в мире бесплатный архив песенных текстов, аккордов, табулатур и нот


Disturbed - Haunted (album) - таба, видео

Регистрация Запомнить меня
Войти через:  Facebook Google Twitter Vk Yandex Mail.ru

Disturbed - Haunted (album) - таба, видео

Печатать
Просмотров: 245
Hey its me, well u dont know who me is but anywaythis is my second tab and its 
easy all u needs timing and practice.

Disturbed
Haunted
Tuning: Drop C Sharp

Intro x2

d#--------------------------------------|
A#--------------------------------------|
F#--------------------------------------|
C#--------------------------------------|
G#--------------------------------------|
C#---9-9-10-9--9--9-10--5-7-9--x3-------|

then do this on the 3rd time

|----------------------------------------|
|----------------------------------------|
|----------------------------------------|
|----------------------------------------|
|----------------------------------------|
|---12-12-12-12-14-10-10-10-10-----------|

Pre Verse/Verse (Listen to the cd for the exact timing on everything)
|----------------------------------------|
|----------------------------------------|
|----------------------------------------|
|---9999-9999-9999-9999-55557777---------|x2
|---9999-9999-9999-9999-55557777---------|
|---9999-9999-9999-9999-55557777---------|

|----------------------------------------|
|----------------------------------------|
|----------------------------------------|
|---9999-9999-9999-9999-55554444---------|
|---9999-9999-9999-9999-55554444---------|
|---9999-9999-9999-9999-55554444---------|

|----------------------------------------------------|
|----------------------------------------------------|
|-------------------------------77777777999955555555-|
|---9999-9999-9999-9999-5555777777777777999955555555-|
|---9999-9999-9999-9999-5555777755555555777733333333-|
|---9999-9999-9999-9999-55557777---------------------|
(im not sure how many times they play this)

Chorus

|-------------------------------------------------------------------|
|-------------------------------------------------------------------|
|-------------------------------------------------------------------|
|---9--9--9--9---9-----4-4-4-5-5-4-4-7-7-7-7--7---12-12-12-10-10-10-|
|---9--9--9--9---9-----4-4-4-5-5-4-4-7-7-7-7--7---12-12-12-10-10-10-|
|---9--9--9--9---9-----4-4-4-5-5-4-4-7-7-7-7--7---12-12-12-10-10-10-|

|------------------------------------------------------------------|
|------------------------------------------------------------------|
|-----------------------------------------7-7-7-9-9-9-7-7-7--------|
|---9--9--9--9---9-----4-4-4-5-5-4-4-7-7-77-7-7-9-9-9-7-7-7-9------|
|---9--9--9--9---9-----4-4-4-5-5-4-4-7-7-75-5-5-7-7-7-5-5-5-9------|
|---9--9--9--9---9-----4-4-4-5-5-4-4-7-7-7------------------9------|

Intro x1

pre verse*/verse
*om this pre verse do this part the first time then the rest
C#---55554444--|
G#---55554444--|
C#---55554444--|
chorus

Bridge x?

|---------------------------------------------------------------|
|---------------------------------------------------------------|
|-------0-----0----0-----0-----0-----0-----0-----0-----0-----0--|
|-----4-----4----4-----4-----4-----4-----4-----4-----4-----4----|
|---2-----2----2-----2-----2-----0-----0-----0-----0-----0------|
|---------------------------------------------------------------|

pre verse*/verse x2
*dont do any additional chords after nine power chord until verse start

Outro x2

|-----------------------------------------------------------------------|
|-----------------------------------------------------------------------|
|-----11-11--10-10----------------------11-11--10-10--------------------|
|-------------------11--12--11------------------------11--12--11--------|
|-------------------------------12-14-----------------------------12-10-|
|---9------9------9---9---9---9-------9------9------9---9---9---9-------|

Final Chords
|------------|
|------------|
|------------|
|---99-------|
|---99-------|
|---99-------|

thats it in all my confusingness if you get its pretty simple, thats all man
  No War, Aaron
Добавлено: 29.06.2012
Другие материалы по этой песне:
  • Аккорды и текст

Страница создана 29.06.2012
http://primanota.ru/disturbed/haunted-album-chords.htm
Привет, Гость.
Предлагаем пройти революционный курс по гитаре.
Подарок от PrimaNota.Ru, забирай!