PrimaNota.ru - самый крупный в мире бесплатный архив песенных текстов, аккордов, табулатур и нот


Disturbed - Fade To Black - текст песни, таба, бас-таба, видео

Регистрация Запомнить меня
Войти через:  Facebook Google Twitter Vk Yandex Mail.ru

Disturbed - Fade To Black - текст песни, таба, бас-таба, видео

Печатать
Просмотров: 250
Авторы: Kirk Hammett, James Hetfield, Cliff Burton, Lars Ulrich
Авторы музыки: Kirk Hammett, James Hetfield, Cliff Burton, Lars Ulrich
Авторы текста: James Hetfield
Band- Disturbed
Song- Fade To Black(Metallica Cover)
Tuning- Standard Tuning

Disturbed plays the whole song, but the solo. Here is what they play.

Intro/Clean
|-----------------------------------------------------------------|
|-----------------------------------------------------------------|
|-----0---------------0---------------0---------------2-----------|
|---4---4---4---4---4---4---4---4---4---4---4---4---2---2---2---2-|
|-2-------2---5---0-------0---5---2-------2---5---4-------4---0---|
|-----------------------------------------------------------------|

Intro Solo
|-----------------------------------------------------------------------------|
|------7----7-8-10~-8-10-10/12-10-8-10~-12p10p8-7-7h8p7---7-8-7---7-----------|
|----7--------------------------------------------------9-------9---9-7-------|
|-/9-----9~--------------------------------------------------------------7-9~-|
|-----------------------------------------------------------------------------|
|-----------------------------------------------------------------------------|

|---------------------------14-17-14-------15p14------------------------|
|-------------8-7~-8/10~-15----------15----------15----17-15-14---------|
|----7-6~-7-6---------------------------16----------14----------16-14^~-|
|-/9--------------------------------------------------------------------|
|-----------------------------------------------------------------------|
|-----------------------------------------------------------------------|

|--------------------------------------------------19-17-15~-15-17-|
|-----------------------14-15-14h15p14----14-15-14-----------------|
|-14h16-----------14-16----------------16--------------------------|
|-------14~-14h16--------------------------------------------------|
|------------------------------------------------------------------|
|------------------------------------------------------------------|

|-14--------14-15-14--------14-15-14----17-15-14~-|
|----15--------------15--------------15-----------|
|-------16~-------------14~-----------------------|
|-------------------------------------------------|
|-------------------------------------------------|
|-------------------------------------------------|

|----------------------------------12-13-15-12h13h15----17~-|
|-------------------------12-13-15-------------------15-----|
|-------------------12-14-----------------------------------|
|----------12-14-15-----------------------------------------|
|-12-14-15--------------------------------------------------|
|-----------------------------------------------------------|

Fill
|-----------------------------0-3-|
|---------------------------------|
|---------------------1-----1-----|
|-----0-------2-----2-----2-------|
|---3-------2---2-2-----2---------|
|-1-----1-4-----------------------|

Verse
|---------0---------------0---------------3-------|
|-0h1-------------1---1-----------0---3-----------|
|-2---2-------0h2---0---------0h2-------------2-0-|
|-2-----2---2-------2---2---2-----------0---0-----|
|-0-----------------3-----------------------------|
|-----------------------------------3-------------|

|----------1/3-|
|----------2/4-|
|-------0------|
|---2----------|
|-----2--------|
|-0------------|

Bridge/Distortion
|----------------------------------------------------|
|----------------------------------------------------|
|-2--2-2---------5--5-5---------2--2-2--7-9--9-9-----|
|-2--2-2---------5--5-5---------2--2-2--7-9--9-9-5-4-|
|-0--0-0-------5-3--3-3-------5-0--0-0--5-7--7-7-3-2-|
|--------0-0-3----------0-0-3------------------------|
P.M.     .......        .......                  ...

|---------------------------------------------|
|---------------------------------------------|
|-2--2-2---------5--5-5---------2--2-2--------|
|-2--2-2---------5--5-5---------2--2-2--------|
|-0--0-0-------5-3--3-3-------5-0--0-0-5-4--2-|
|--------0-0-3----------0-0-3----------3-2--0-|
P.M.     .......        .......        ...

Mid Solo
|-----------------------------------------------------------------------------------------|
|-10~-12-13~-13/15-13-12-----------------------------------12-13~-15^-13-15^-15^-15^-15^~-|
|------------------------12~-12h14-9~-9/11-11/12-12/14~-14--------------------------------|
|-----------------------------------------------------------------------------------------|
|-----------------------------------------------------------------------------------------|
|-----------------------------------------------------------------------------------------|

Bridge 2(faster)
|---------------------------------|
|---------------------------------|
|-7/9--9--9--7/9--9-12-11-7--7--7-|
|-7/9--9--9--7/9--9-12-11-7--7--7-|
|-5/7--7--7--5/7--7-10--9-5--5--5-|
|---------------------------------|

|---------------------------|
|---------------------------|
|-------------------------4-|
|-9-9-9-7-7-7-5-5-5-4-4-4---|
|---------------------------|
|---------------------------|
P.M........................

|---------------------------------|
|---------------------------------|
|-7/9--9--9--7/9--9-12-11-7--7--7-|
|-7/9--9--9--7/9--9-12-11-7--7--7-|
|-5/7--7--7--5/7--7-10--9-5--5--5-|
|---------------------------------|

|----------------------------|
|----------------------------|
|----------------------------|
|-9-9-9-7-7-7-5-5-5-4-4-4--5-|
|----------------------------|
|----------------------------|
P.M.........................

Bridge 3
|-------------------------------------------------------------|
|-------------------------------------------------------------|
|---------9---------12-11---------7---------------------------|
|---------9---------12-11---------7-------------------------4-|
|---------7---------10--9---------5-9-9-9-7-7-7-5-5-5-4-4-4---|
|-0-0-0-0---0-0-0-0-------0-0-0-0-----------------------------|
P.M......   .......       .......

|--------------------------------------------------------------|
|--------------------------------------------------------------|
|---------9---------12-11---------7----------------------------|
|---------9---------12-11---------7----------------------------|
|---------7---------10--9---------5-9-9-9-7-7-7-5-5-5-4-4-4--5-|
|-0-0-0-0---0-0-0-0-------0-0-0-0------------------------------|
P.M......   .......       .......

Outro
|--------------------------------|
|--------------------------------|
|-7/9--9--9-7/9--9-12-11-7--7--7-|
|-7/9--9--9-7/9--9-12-11-7--7--7-|
|-5/7--7--7-5/7--7-10--9-5--5--5-|
|--------------------------------|

This is the best cover for this song that I've heard. It would have been better if they
hade all the solo's too. ENJOY!
Добавлено: 25.02.2012
Другие материалы по этой песне:

Страница создана 25.02.2012
http://primanota.ru/disturbed/fade-to-black-chords.htm
Привет, Гость.
Предлагаем пройти революционный курс по гитаре.
Подарок от PrimaNota.Ru, забирай!