PrimaNota.ru - самый крупный в мире бесплатный архив песенных текстов, аккордов, табулатур и нот


Disturbed - Enough - текст песни, таба, драм-таба, видео

Регистрация Запомнить меня
Войти через:  Facebook Google Twitter Vk Yandex Mail.ru

Disturbed - Enough - текст песни, таба, драм-таба, видео

Печатать
Просмотров: 249
----Enough + Disturbed-----

-Tuning is: Drop C (All strings 1 step down, bass string an extra step on top of that)

------C G C F A D (low to high)------


Legend - I suggest looking over it, there are some descriptions, as well as special cases.

 /  - Slide Right (If only 1 number just slide from anywhere towards it left to right)
 \  - Slide left (If only 1 number just slide from anywhere towards it right to left)
 ^  - Bend (5^7= bend the 5 fret until it sounds like 7, or 5^ = quick bend)
(~) - Vibrato (5(~) = Wiggle the string shown)
<5> - Natural Harmonic (Just put your finger lightly over the actually fret)
(5) - Pinch Harmonic
 x  - Mute that string
 . - Palm Mute (Mute the note shown with picking hand palm, the '.' is under the note)
 h  - Hammer On (ie..3h5 = pic the 3rd fret and then hammer your finger into the 5th 
picking)
 p  - Pull Off (opposite of hammer on, 5p3 = pic the 5th while holding the 3rd as well, 
pull your finger of the 5th)

Very fun song to play once you get it down right. There may of course be alternate 
but these are the right notes for sure.
The only part of the song I cant hear clearly in the song is the 3 chord of the chorus, 
im pretty sure about it.
Have fun.

---Intro---


D|-----------------------------------|
A|--------------<7>------------------|
F|----<5>----------------<7>---------|
C|-----------------------------------|
G|-----------------------------------|
C|-----------------------------------|


Guitar 1

D|-----------------------------------------------------------------|
A|-----------------------------------------------------------------|
F|--2--------------------------------------------------------------| Guitar 1
C|--0---------------------------x-x--------------------------------|
G|--0---------------------------x-x--------------------------------|
C|--0---------------------------x-x--------------------------------|
 {                                                                 }
 {                                                                 }
 {                                                                 }
D|-----------------------------------------------------------------|
A|-----------------------------------------------------------------|
F|-----------------------------------------------------------------| Guitar 2
C|-----------------------------------------------------------------|
G|-----------------------------------------------------------------|
C|--x-x-12-13-12-----8-7-0-3-5---10-9-6p5h8--7--3-5--3-------------|

D|-----------------------------------------------------------------|
A|-----------------------------------------------------------------|
F|--2--------------------------------------------------------------| Guitar 1
C|--0---------------------------x-x-------x-x-----x-x--------------|
G|--0---------------------------x-x-------x-x-----x-x--------------|
C|--0---------------------------x-x-------x-x-----x-x--------------|
 {                                                                 }
 {                                                                 }
 {                                                                 }
D|-----------------------------------------------------------------|
A|-----------------------------------------------------------------|
F|-----------------------------------------------------------------| Guitar 2
C|-----------------------------------------------------------------|
G|----------------------------------------------------6------------|
C|--x-x-12-13-12-----8-7-0-3-5---10-9-6p5h8--7--8-10---------------|

D|-----------------------------------------------------------------|
A|-----------------------------------------------------------------|
F|--2--------------------------------------------------------------| Guitar 1
C|--0---------------------------x-x--------------------------------|
G|--0---------------------------x-x--------------------------------|
C|--0---------------------------x-x--------------------------------|
 {                                                                 }
 {                                                                 }
 {                                                                 }
D|-----------------------------------------------------------------|
A|-----------------------------------------------------------------|
F|-----------------------------------------------------------------| Guitar 2
C|-----------------------------------------------------------------|
G|-----------------------------------------------------------------|
C|--x-x-12-13-12-----8-7-0-3-5---10-9-6p5h8--7--3-5--3-------------|

D|-----------------------------------------------------------------|
A|-----------------------------------------------------------------|
F|--2--------------------------------------------------------------| Guitar 1
C|--0--------------------------------------------------------------|
G|--0----------------------------0-0-0-0-0-0-0-0-0-0-0-0-0-0-0-0---|
C|--0----------------------------0-0-0-0-0-0-0-0-0-0-0-0-0-0-0-0---|
 {                               . . . . . . . . . . . . . . . .   }
 {                                                                 }
 {                                                                 }
D|-----------------------------------------------------------------|
A|-----------------------------------------------------------------|
F|-------------------------------7-7-7-7-7-7-7-7-7-7-7-7-7-7-7-7---| Guitar 2
C|-------------------------------x-x-x-x-x-x-x-x-x-x-x-x-x-x-x-x---|
G|-------------------------------5-5-5-5-5-5-5-5-5-5-5-5-5-5-5-5---|
C|--x-x-12-13-12-----8-7-0-3-5-------------------------------------|


---Verse---

D|-----------------------------------------------------------------|
A|-----------------------------------------------------------------|
F|-----------------------------------------------------------------|
C|-----------------------------------------------------------------|
G|-0-0-12-13-12--0-0-0--8-7-0-3-5--10-0-0-9-0-6-5-8-0-7-0-3-5-0-3--|
C|-0-0-12-13-12--0-0-0--8-7-0-3-5--10-0-0-9-0-6-5-8-0-7-0-3-5-0-3--|
   . .           . . .                . .   .       .   .     .

D|-----------------------------------------------------------------|
A|-----------------------------------------------------------------|
F|-----------------------------------------------------------------|
C|---------------------------------------------------------------8-|
G|-0-0-12-13-12--0-0-0--8-7-0-3-5--10-0-0-9-0-6-5-8-0-7-0-8-10-0-6-|
C|-0-0-12-13-12--0-0-0--8-7-0-3-5--10-0-0-9-0-6-5-8-0-7-0-8-10-0---|
    . .           . . .                . .   .       .   .     .


---Pre-Chorus---


D|------------------------------|
A|--3-----8---------------------|
F|--2-----8---------------------|
C|--0-----8---------------------|
G|--0-----6---------------------|
C|--0---------------------------|

---Chorus---- Just a guide of the chords, the thirds chords switch between muted and unmuted
and the 8 7 are brief transition chords. Just listen it out you'll get it.


D|----------------------------------------------------------------------------------|
A|----------------------------------------8----6----4-------------------------------|
F|--7----3-----------------3--------------7----5----3-------------------------------|
C|--5----1-----------------1---8--7-------5----3----1------10-10-8-10----10-10-8-10-|
G|--5----1----3-3---3-3----1---8--7-------5----3----1------10-10-8-10----10-10-8-10-|
C|--5----1----3-3---3-3----1---8--7-------5----3----1------10-10-8-10----10-10-8-10-|


2nd guitar in chorus alternates from these two chords

D|----------------------------------------------------------------------------------|
A|-11-11-11-----10-10-10------------------------------------------------------------|
F|-10-10-10-----10-10-10------------------------------------------------------------|
C|-10-10-10-----10-10-10------------------------------------------------------------|
G|----------------------------------------------------------------------------------|
C|----------------------------------------------------------------------------------|


---Bridge---


D|-----------------------------------------------------------------------|
A|-----------------------------------------------------------------------|
F|-----------------------------------------------------------------------|
C|-0-0-12-0-13-0-12--0-0-0--8-0-7-0-3-5--10-0-0-9-0-6-5-8-0-7-0-3-5-0-3--|
G|-----------------------------------------------------------------------|
C|-----------------------------------------------------------------------|
   . .               . . .                  . .   .       .   .     .

D|-----------------------------------------------------------------------|
A|-----------------------------------------------------------------------|
F|---------------------------------------------------------------------8-|
C|-0-0-12-0-13-0-12--0-0-0--8-0-7-0-3-5--10-0-0-9-0-6-5-8-0-7-0-8-10-0---|
G|-----------------------------------------------------------------------|
C|-----------------------------------------------------------------------|
   . .               . . .                  . .   .       .   .      .


Then they replay the verse riff and then do this riff.


   |                x3         |ending 1|     |ending 2 after 3 repeats of ending 1|
D|------------------------------------------||-------------------------------------|
A|------------------------------------------||-------------------------------------|
F|------------------------------------------||-------------------------------------|
C|---7-7-7-7--7-7-7-7--8-8-8-8--8-8-8-10-8--||-------------------------------------|
G|---5-5-5-5--5-5-5-5--6-6-6-6--6-6-6-8--6--||--0-0-0-0-0--------------------------|
C|------------------------------------------||--0-0-0-0-0--------------------------|
                                                . . . . .

For order of playing---

Intro
verse
chorus
verse
Chorus
Bridge part 1
verse
Bridge part 2
Chorus

----------
And there it is. I know I make these long but it is, in my opinion, easier to scroll 
instead of jumping around the tab looking for parts and sometimes there are parts with 
differences and it just

makes it easier for me to show them by writing everything out.
Thanks,
-Jay (Subbliminal@DONTSPAM@hotmail.com) Just remove the 'DONTSPAM of course.
Добавлено: 19.06.2012
Другие материалы по этой песне:

Страница создана 22.02.2012
http://primanota.ru/disturbed/enough-chords.htm
Привет, Гость.
Предлагаем пройти революционный курс по гитаре.
Подарок от PrimaNota.Ru, забирай!