PrimaNota.ru - самый крупный в мире бесплатный архив песенных текстов, аккордов, табулатур и нот


Disturbed - Down With The Sickness Live - бас-таба, видео

Регистрация Запомнить меня
Войти через:  Facebook Google Twitter Vk Yandex Mail.ru

Disturbed - Down With The Sickness Live - бас-таба, видео

Печатать
Просмотров: 196
Dropped D tuning

After the drums play for a little bit you come in with the intro then you'll
 know when to come in with the second line but in case not it's tells you

Intro(0:10)
G|-xx-xx-xx-xx-xxx-|  Play this part 8 times
D|-xx-xx-xx-xx-xxx-|
A|-xx-xx-xx-xx-xxx-|
D|-xx-xx-xx-xx-xxx-|

(0:32)
G|---------------------------------|   Play this 8 times.
D|---------------------------------|
A|---------------------------------|
D|-1-4-1-2-1---1-4-1-2-1---1-4-1-1-|

 Verse (0:53)

G|----------------------|--------------------| 
D|----------------------|--------------------|  
A|----------------------|--------------------|   Play this 4 times.
D|--11111--11111--1111--|-11111--11111--2222-| 



G|---------------------------------|   Play this 8 times.
D|---------------------------------|
A|---------------------------------|
D|-1-4-1-2-1---1-4-1-2-1---1-4-1-1-|


Chorus(1:36)

G|---------------|--------------|--------------|   -----|
D|---------------|--------------|--------------|        |
A|---------------|--------------|--------------|        |
D|--1-1121-1-121-|-1-1121-1-222-|-1-1121-1-121-|        |
                                                        |   Play both 2 times.
G|--------------|                                       |
D|--------------|                                       |
A|--------------|                                       |
D|-3--3-31--1-1-|                                  -----|



Verse 2(1:59)

G|----------------------|--------------------| 
D|----------------------|--------------------|  
A|----------------------|--------------------|   Play 4 times.
D|--11111--11111--1111--|-11111--11111--2222-| 



G|---------------------------------|   Play this 8 times.
D|---------------------------------|
A|---------------------------------|
D|-1-4-1-2-1---1-4-1-2-1---1-4-1-1-|

Chorus 2 (2:45)

G|---------------|--------------|--------------|   -----|
D|---------------|--------------|--------------|        |
A|---------------|--------------|--------------|        |
D|--1-1121-1-121-|-1-1121-1-222-|-1-1121-1-121-|        |
                                                        |   Play both 2 times.
G|--------------|                                       |
D|--------------|                                       |
A|--------------|                                       |
D|-3--3-31--1-1-|                                  -----|


Bridge (3:07)

G|--------|
D|--------|   
A|--------|   Play this 8 times.
D|-10-9-1-|

G|------------------|
D|------------------|   
A|------------------|   Play this 3 times.
D|-3-9-10-15-3-9-10-|

G|--------|  
D|--------|
A|--------|   Play this 4 times.
D|-3-9-10-|

G|------------------|
D|------------------|  Play this 3 times.
A|------------------|
D|-3-9-10-15-3-9-10-|

Verse 3 (4:10)

G|------------------------------|
D|-3-6-3-4-3--3-6-3-4-3--3-6-3-4|
A|------------------------------|   
D|------------------------------|

Chorus(

G|---------------|--------------|--------------|   -----|
D|---------------|--------------|--------------|        |
A|---------------|--------------|--------------|        |
D|--1-1121-1-121-|-1-1121-1-222-|-1-1121-1-121-|        |
                                                        |   Play both 2 times.
G|--------------|                                       |
D|--------------|                                       |
A|--------------|                                       |
D|-3--3-31--1-1-|                                  -----|
Добавлено: 05.05.2012
Другие материалы по этой песне:

Страница создана 05.05.2012
http://primanota.ru/disturbed/down-with-the-sickness-live-chords.htm
Привет, Гость.
Предлагаем пройти революционный курс по гитаре.
Подарок от PrimaNota.Ru, забирай!