PrimaNota.ru - самый крупный в мире бесплатный архив песенных текстов, аккордов, табулатур и нот


Disturbed - Divide - текст песни, таба, бас-таба, видео

Регистрация Запомнить меня
Войти через:  Facebook Google Twitter Vk Yandex Mail.ru

Disturbed - Divide - текст песни, таба, бас-таба, видео

Печатать
Просмотров: 201
My Third tab submitted today! UPDATED- Chorus onward much better!
I was playing along last night with Disturbed stuff so I worked this out.
Kind of easy to work out I suppose but better to have it here than nothing

It's not in drop tuning- it's one of their earlier songs, and the chorus is MUCH 
easier without dropping the lowest string.

Intro Riff 1                         Intro Riff 2
D#|---------------------------------|--------------------------------------|
A#|---------------------------------|--------------------------------------|
F#|---------------------------------|--------------------------------------|
C#|-7-7-7-7-4-4-4-4-5-5-5-5-6-6-6-6-|--------------------------------------|
G#|-7-7-7-7-4-4-4-4-5-5-5-5-6-6-6-6-|-4--xx4-4--xx4-4--xx4-4--xx4-2-7------|
D#|-5-5-5-5-2-2-2-2-3-3-3-3-4-4-4-4-|-2--xx2-2--xx2-2--xx2-2--xx2-0-5------|

Verse
  PM-----------------------|    lead goes something like this
D#|---------------------------|--------------------------------------------|
A#|---------------------------|--------19~~--------------------------------|
F#|---------------------------|-----17-----------17-18---18--17------------|
C#|---------------------------|--16-----------16-----------------19--------|
G#|-4--4-4--4-4--4-4--4-2-7---|--------------------------------------------|
D#|-2--2-2--2-2--2-2--2-0-5---|--------------------------------------------|

pre chorus                     
D#|----------------------------|
A#|----------------------------|
F#|----------------------------|
C#|----------------------------|
G#|-4-xx4-4-xx4-4-xx4-4-xx-----|
D#|-2-xx2-2-xx2-2-xx2-2-xx-12\-|

Chorus
D#|---------------------------------|--------------------------------------|
A#|---pm|---pm|---pm|---pm|-------pm|---pm|---pm|---pm|---pm|--------------|
F#|---------------------------------|--------------------------------------|
C#|-9-----10----5-----7-----7-9-9---|-9-----10----5-----7-----12--12-------|
G#|-7-----8-----3-----5-----5-7-7---|-7-----8-----3-----5-----10--10-------|
D#|---0-0---0-0---0-0---0-0-------0-|---0-0---0-0---0-0---0-0--------------|

Interlude (to start with just play the octaves)
D#|----|------------------------------------|--------------------------------|
A#|----|------------------------------------|--------------------------------|
F#|----|------------------------------------|--------------------------------|
C#|-4--|-4-4-4-10-10-10-4-4-4-2-2-2-6/7-7/9-|-5-5-5-5-5-5-5-5-9-9-9-9-9-9-9-9|
G#|-4--|-4-4-4-10-10-10-4-4-4-2-2-2-6/7-7/9-|-5-5-5-5-5-5-5-5-9-9-9-9-9-9-9-9|
D#|-2--|-2-2-2-8--8--8--2-2-2-0-0-0-4/5-5/7-|-3-3-3-3-3-3-3-3-7-7-7-7-7-7-7-7|

Then verse and stuff as rhythm under the quite simple solo (which I couldn't tab anyway!)
solo end:
D#|---------------------------------|
A#|---------------------------------|
F#|---------------------------------|
C#|-4-4-4-4-4-4-4-4-7-7-7-7-7-7-7-7-|
G#|-2-2-2-2-2-2-2-2-5-5-5-5-5-5-5-5-|
D#|---------------------------------|
Добавлено: 21.04.2012
Другие материалы по этой песне:

Страница создана 01.03.2012
http://primanota.ru/disturbed/divide-chords.htm
Привет, Гость.
Предлагаем пройти революционный курс по гитаре.
Подарок от PrimaNota.Ru, забирай!