PrimaNota.ru - самый крупный в мире бесплатный архив песенных текстов, аккордов, табулатур и нот


Disturbed - Breathe - текст песни, таба, бас-таба, видео

Регистрация Запомнить меня
Войти через:  Facebook Google Twitter Vk Yandex Mail.ru

Disturbed - Breathe - текст песни, таба, бас-таба, видео

Печатать
Просмотров: 162
Авторы музыки: Disturbed

Song: Believe
Band: Disturbed
Album: Believe
Tuning: Drop D half-step down (Db Ab Db Gb Bb eb, low to high)
Transcribed and written by: JustinLH4rock

INTRO: x2
eb|------------------------------------------------------------------------|
Bb|--------------------------------------13-12-----------------------------|
Gb|--------xx---------xx--------x-x-9-10--------------x--------------------|
Db|-9h10-9-xx-9h10-12-xx-9h10-9----------------9h10-9-x-9h10-12-7-----5----|
Ab|-0----0----0----0-----0----0----------------0----0---0----0--5--3--3--5-|
Db|----------------------------------------------------------------3-----5-|

VERSE: x2
|------------------------------------------------------------------------|
|------------------------------------------------------------------------|
|--------xx---------xx------------------------------x--------------------|
|-9h10-9-xx-9h10-12-xx-9h10-9-------------9--9h10-9-x-9h10-12-7-----5----|
|-0----0----0----0-----0----0----------7-----0----0---0----0--5--3--3--5-|
|----------------------------------------------------------------3-----5-|

|------------------------------------------------------------------------|
|--------------------------------------13-12-----------------------------|
|--------xx---------xx--------x-x-9-10--------------x--------------------|
|-9h10-9-xx-9h10-12-xx-9h10-9----------------9h10-9-x-9h10-12-7-----5----|
|-0----0----0----0-----0----0----------------0----0---0----0--5--3--3--5-|
|----------------------------------------------------------------3-----5-|

|-----------------|
|-----------------|
|-----------------|
|-2-2-2-2-2-2-2-2-|
|-2-2-2-2-2-2-2-2-|
|-2-2-2-2-2-2-2-2-|

PRE-CHORUS:
|--------------------------------------------------------------------|
|--------------------------------------------------------------------|
|--------------------------------------------------------------------|
|---------------000-0000-0000-------------------------------------2--|
|-333-3333-3333-000-0000-0000-101010-10101010-10101010-333-3333-3-2--|
|-333-3333-3333-000-0000-0000-101010-10101010-10101010-333-3333-3-2--|

|--------------------------------------------------------------------|
|--------------------------------------------------------------------|
|--------------------------------------------------------------------|
|---------------222-2222-2222-0-0-0-0-0-0-0--------------------------|
|-333-3333-3333-222-2222-2222-0-0-0-0-0-0-0-14-/15-14/15-14/15-14/15-|
|-333-3333-3333-222-2222-2222-0-0-0-0-0-0-0-14-/15-14/15-14/15-14/15-|

CHORUS:
Guitar 2
|------------------8-8-10-10-8--8--8--8--0-0-0-0-0-0-0-0-0-------------8-8-|
|1010---101010-----x-x--x--x-x--x--x--x----5-5-5-5-5-5-5-51010-101010--x-x-|
|-x-x----x-x-x-----5-5--7--7-5--5--5--5--------------------x-x--x-x-x--5-5-|
|-7-7----7-7-7---------------------------------------------7-7--7-7-7------|
|--------------------------------------------------------------------------|
|--------------------------------------------------------------------------|
Guitar 1 (NOTE: bend only the 13. Bend with third finger, hold 10 with first finger)
|-----------------------10-------------------------------------------------|
|-----------------------13b------------------------------------------------|
|-------------------------------2--2-----2---------------------------------|
|-7-7--x5-5-5-x0-0-0---------0--0--0-----0-3-3-3-3-3-3-3-3-5-5-5-5-5-5-5-3-|
|-7-7--x5-5-5-x0-0-0---------0--0--0-----0-3-3-3-3-3-3-3-3-5-5-5-5-5-5-5-3-|
|-7-7--x5-5-5-x0-0-0---------0--0--0-----0-3-3-3-3-3-3-3-3-5-5-5-5-5-5-5-3-|

Guitar 2
|------------------8-8-10-10-8--8--8--8--------------------0-0-0-0-0-0-----|
|1010---101010-----x-x--x--x-x--x--x--x--------------------3-3-3-3-3-0-8---|
|-x-x----x-x-x-----5-5--7--7-5--5--5--5--------------------------------7---|
|-7-7----7-7-7---------------------------------------------------------6---|
|----------------------------------------------------------------------7---|
|--------------------------------------------------------------------------|
Guitar 1
|--------------------------------------------------------------------------|
|------------------------3-------------------------------------------------|
|------------------------5b--2--2--2-----2-----------------------------0---|
|-7-7--x5-5-5-x0-0-0---------0--0--0-----0-3-3-3-3-3-3-3-3-2-2-2-2-2-2-2---|
|-7-7--x5-5-5-x0-0-0---------0--0--0-----0-3-3-3-3-3-3-3-3-2-2-2-2-2-2-2---|
|-7-7--x5-5-5-x0-0-0---------0--0--0-----0-3-3-3-3-3-3-3-3-2-2-2-2-2-2-2---|

BRIDGE: x2
|------------------------------------------------------------------------|
|--------------------------------------13-12-----------------------------|
|--------xx---------xx--------x-x-9-10--------------x--------------------|
|-9h10-9-xx-9h10-12-xx-9h10-9----------------9h10-9-x-9h10-12-7-----5----|x2
|-0----0----0----0-----0----0----------------0----0---0----0--5--3--3--5-|
|----------------------------------------------------------------3-----5-|

VERSE: x2
|------------------------------------------------------------------------|
|------------------------------------------------------------------------|
|--------xx---------xx------------------------------x--------------------|
|-9h10-9-xx-9h10-12-xx-9h10-9-------------9--9h10-9-x-9h10-12-7-----5----|
|-0----0----0----0-----0----0----------7-----0----0---0----0--5--3--3--5-|
|----------------------------------------------------------------3-----5-|

|------------------------------------------------------------------------|
|--------------------------------------13-12-----------------------------|
|--------xx---------xx--------x-x-9-10--------------x--------------------|
|-9h10-9-xx-9h10-12-xx-9h10-9----------------9h10-9-x-9h10-12-7-----5----|
|-0----0----0----0-----0----0----------------0----0---0----0--5--3--3--5-|
|----------------------------------------------------------------3-----5-|

|-----------------|
|-----------------|
|-----------------|
|-2-2-2-2-2-2-2-2-|
|-2-2-2-2-2-2-2-2-|
|-2-2-2-2-2-2-2-2-|

PRE-CHORUS:
|--------------------------------------------------------------------|
|--------------------------------------------------------------------|
|--------------------------------------------------------------------|
|---------------000-0000-0000-------------------------------------2--|
|-333-3333-3333-000-0000-0000-101010-10101010-10101010-333-3333-3-2--|
|-333-3333-3333-000-0000-0000-101010-10101010-10101010-333-3333-3-2--|

|--------------------------------------------------------------------|
|--------------------------------------------------------------------|
|--------------------------------------------------------------------|
|---------------222-2222-2222-0-0-0-0-0-0-0--------------------------|
|-333-3333-3333-222-2222-2222-0-0-0-0-0-0-0-14-/15-14/15-14/15-14/15-|
|-333-3333-3333-222-2222-2222-0-0-0-0-0-0-0-14-/15-14/15-14/15-14/15-|

CHORUS: x2
Guitar 2
|------------------8-8-10-10-8--8--8--8--0-0-0-0-0-0-0-0-0-------------8-8-|
|1010---101010-----x-x--x--x-x--x--x--x----5-5-5-5-5-5-5-51010-101010--x-x-|
|-x-x----x-x-x-----5-5--7--7-5--5--5--5--------------------x-x--x-x-x--5-5-|
|-7-7----7-7-7---------------------------------------------7-7--7-7-7------|
|--------------------------------------------------------------------------|
|--------------------------------------------------------------------------|
Guitar 1
|-----------------------10-------------------------------------------------|
|-----------------------13b------------------------------------------------|
|-------------------------------2--2-----2---------------------------------|
|-7-7--x5-5-5-x0-0-0---------0--0--0-----0-3-3-3-3-3-3-3-3-5-5-5-5-5-5-5-3-|
|-7-7--x5-5-5-x0-0-0---------0--0--0-----0-3-3-3-3-3-3-3-3-5-5-5-5-5-5-5-3-|
|-7-7--x5-5-5-x0-0-0---------0--0--0-----0-3-3-3-3-3-3-3-3-5-5-5-5-5-5-5-3-|

Guitar 2
|------------------8-8-10-10-8--8--8--8--------------------0-0-0-0-0-0-----|
|1010---101010-----x-x--x--x-x--x--x--x--------------------3-3-3-3-3-0-8---|
|-x-x----x-x-x-----5-5--7--7-5--5--5--5--------------------------------7---|
|-7-7----7-7-7---------------------------------------------------------6---|
|----------------------------------------------------------------------7---|
|--------------------------------------------------------------------------|
Guitar 1
|--------------------------------------------------------------------------|
|------------------------3-------------------------------------------------|
|------------------------5b--2--2--2-----2-----------------------------0---|
|-7-7--x5-5-5-x0-0-0---------0--0--0-----0-3-3-3-3-3-3-3-3-2-2-2-2-2-2-2---|
|-7-7--x5-5-5-x0-0-0---------0--0--0-----0-3-3-3-3-3-3-3-3-2-2-2-2-2-2-2---|
|-7-7--x5-5-5-x0-0-0---------0--0--0-----0-3-3-3-3-3-3-3-3-2-2-2-2-2-2-2---|

BRIDGE: (play this riff, then the next, then 
         this a third time..hence the 1.3.)
                                                     1.3.
|--------------------------------------------------------|
|--------------------------------------------------------|
|--------------------------------------------------------|
|-5-7---7-10-7-5-7---------12-12---10-10---9-9---10---10-|
|-0-0-0-0----0-0-0-0-0-0-0--0--0-0--0--0-0-0-0-0--0-0----|
|--------------------------------------------------------|
PM    *      *     *******       *       *     *    *
                                                 2.
|--------------------------------------------------|
|--------------------------------------------------|
|--------------------------------------------------|
|-5-7---7-10-7-5-7---------5-7---5-7---5-7---------|
|-0-0-0-0----0-0-0-0-0-0-0-0-0-0-0-0-0-0-0-5-5-5-5-|
|------------------------------------------5-5-5-5-|
PM    *      *     *******     *     *     *******

|--------------------------------------------------|
|--------------------------------------------------|
|--------------------------------------------------|
|-5-7---7-10-7-5-7---------------------------------|
|-0-0-0-0----0-0-0-0-0-0-0-10-10-xx-12-12-xx-10-10-|
|--------------------------10-10-xx-12-12-xx-10-10-|
PM    *      *     *******

|------------------------|------------------------|
|------------------------|------------------------|
|------------------------|------------------------|
|------------------------|------------------------|
|(10)--------------------|(10)--------------------|
|(10)--------------------|(10)--------------------|

CHORUS: x2
Guitar 2
|------------------8-8-10-10-8--8--8--8--0-0-0-0-0-0-0-0-0-------------8-8-|
|1010---101010-----x-x--x--x-x--x--x--x----5-5-5-5-5-5-5-51010-101010--x-x-|
|-x-x----x-x-x-----5-5--7--7-5--5--5--5--------------------x-x--x-x-x--5-5-|
|-7-7----7-7-7---------------------------------------------7-7--7-7-7------|
|--------------------------------------------------------------------------|
|--------------------------------------------------------------------------|
Guitar 1
|-----------------------10-------------------------------------------------|
|-----------------------13b------------------------------------------------|
|-------------------------------2--2-----2---------------------------------|
|-7-7--x5-5-5-x0-0-0---------0--0--0-----0-3-3-3-3-3-3-3-3-5-5-5-5-5-5-5-3-|
|-7-7--x5-5-5-x0-0-0---------0--0--0-----0-3-3-3-3-3-3-3-3-5-5-5-5-5-5-5-3-|
|-7-7--x5-5-5-x0-0-0---------0--0--0-----0-3-3-3-3-3-3-3-3-5-5-5-5-5-5-5-3-|

Guitar 2
|------------------8-8-10-10-8--8--8--8----0-0-0-0-0-0-0-0-0-0-0-0-0-0-0-0-|
|1010---101010-----x-x--x--x-x--x--x--x----5-5-5-5-5-5-5-5-3-3-3-3-3-3-3-3-|
|-x-x----x-x-x-----5-5--7--7-5--5--5--5------------------------------------|
|-7-7----7-7-7-------------------------------------------------------------|
|--------------------------------------------------------------------------|
|--------------------------------------------------------------------------|
Guitar 1
|--------------------------------------------------------------------------|
|------------------------3-------------------------------------------------|
|------------------------5b--2--2--2-----2---------------------------------|
|-7-7--x5-5-5-x0-0-0---------0--0--0-----0-3-3-3-3-3-3-3-3-2-2-2-2-2-2-2-2-|
|-7-7--x5-5-5-x0-0-0---------0--0--0-----0-3-3-3-3-3-3-3-3-2-2-2-2-2-2-2-2-|
|-7-7--x5-5-5-x0-0-0---------0--0--0-----0-3-3-3-3-3-3-3-3-2-2-2-2-2-2-2-2-|

OUTRO:
Guitar 2
|-0-0-0-0-0-0-0-0-0-0-0-0-0-0-0-0-0-0-0-0-0-0-0-0-0-0-0-0------------|
|-5-5-5-5-5-5-5-5-3-3-3-3-3-3-3-3-5-5-5-5-5-5-5-5-3-3-3-3-0-0--------|
|-------------------------------------------------------------0---2~-|
|-----------------------------------------------------------------2~-|
|-----------------------------------------------------------------0~-|
|--------------------------------------------------------------------|

Guitar 1
|--------------------------------------------------------------------|
|--------------------------------------------------------------------|
|--------------------------------------------------------------------|
|-3-3-3-3-3-3-3-3-2-2-2-2-2-2-2-2-3-3-3-3-3-3-3-3-2-2-2-2-2-2-2-2-7~-|
|-3-3-3-3-3-3-3-3-2-2-2-2-2-2-2-2-3-3-3-3-3-3-3-3-2-2-2-2-2-2-2-2-7~-|
|-3-3-3-3-3-3-3-3-2-2-2-2-2-2-2-2-3-3-3-3-3-3-3-3-2-2-2-2-2-2-2-2-7~-|


Thank you for taking time with this document. This tab is 100% correct, I
promise you that. Disturbed only has one guitarist though; thus, for the albums he
records two riffs in different songs, such as this one and
Devour, another good song. I will be tabbing it soon. (In concert he plays main chords
in riffs, or for songs like devour he does lead; in concert he plays whatever the main
riff is.)
Добавлено: 27.09.2013
Другие материалы по этой песне:

Страница создана 26.02.2012
http://primanota.ru/disturbed/breathe-chords.htm
Привет, Гость.
Предлагаем пройти революционный курс по гитаре.
Подарок от PrimaNota.Ru, забирай!