PrimaNota.ru - самый крупный в мире бесплатный архив песенных текстов, аккордов, табулатур и нот


The Districts - Wrung Out And Hanging On West-coast Time - таба, видео

Регистрация Запомнить меня
Войти через:  Facebook Google Twitter Vk Yandex Mail.ru

The Districts - Wrung Out And Hanging On West-coast Time - таба, видео

Печатать
Просмотров: 106
Уроки эстрадного вокала в Санкт-Петербурге
-------------------------------------------------------------------------------
          Wrung out and Hanging (On West Coast Time) - The Districts
-------------------------------------------------------------------------------
Tabbed by: zander32
E-mail:

Tuning: Standard

Play like this 1x.

e|---------------2-----2------2----2---2------2-----2-----2---------------------|
B|---------------2-----2------2----2---2------2-----2-----2---------------------|
G|-------------2-----2------2---------------2-----2-----2-----------------------|
D|--2---3---4--4-----4---4--4----4---3---2--4-----4-----4-----------------------|
A|-----------------4----------------------------4-----4-------------------------|
E|------------------------------------------------------------------------------|

And like this from now on. About 5x.

e|----2---2------2-----2------2----2---2------2-----2-----2---------------------|
B|----2---2------2-----2------2----2---2------2-----2-----2---------------------|
G|-------------2-----2------2---------------2-----2-----2-----------------------|
D|--2---3---4--4-----4---4--4----4---3---2--4-----4-----4-----------------------|
A|-----------------4----------------------------4-----4-------------------------|
E|------------------------------------------------------------------------------|

Play 2x.

e|-----------------------------------------------------------------------------|
B|-----------------------------------------------------------------------------|
G|-----------------------------------------------------------------------------|
D|-----------------------------------------------------------------------------|
A|---4--3--2-2-2-2-2-3--4------------------------------------------------------|
E|-----------------------------------------------------------------------------|

The best thing to do is to listen to the song and figure out where each part
is needed. These three parts covers all the tabs but there is still a small
section where chords are still needed. The Outro is like part 3 with a slight
addition.

e|-----------------------------------------------------------------------------|
B|-----------------------------------------------------------------------------|
G|-----------------------------------------------------------------------------|
D|-----------------------------------------------------------------------------|
A|---4--3--2-2-2-2-2-3--4--4-4-4-4-4-------------------------------------------|
E|------------------------------------2----------------------------------------|

If anyone can figure out the chords for this song feel free to add below.


************************************

| /   slide up
| \   slide down
| h   hammer-on
| p   pull-off
| ~   vibrato
| +   harmonic
| x   Mute note
| b   Bend
| pb  Pre-bend
| br  Bend release
| pbr Pre-bend release
| brb Bend release bend

************************************
Добавлено: 11.07.2015
Другие материалы по этой песне:
  • Аккорды и текст

Страница создана 11.07.2015
http://primanota.ru/districts/wrung-out-and-hanging-on-west-coast-time-chords.htm
Привет, Гость.
Предлагаем пройти революционный курс по гитаре.
Подарок от PrimaNota.Ru, забирай!