PrimaNota.ru - самый крупный в мире бесплатный архив песенных текстов, аккордов, табулатур и нот


Distortion - Its All Over - таба, видео

Регистрация Запомнить меня
Войти через:  Facebook Google Twitter Vk Yandex Mail.ru

Distortion - Its All Over - таба, видео

Печатать
Просмотров: 107
INTRO:


E-------------------------------20b--|
B------------------------------------|
G-7-7---7-7--5--3-3---3-3---7--------|
D-7-7---7-7--5--3-3---3-3---7--------|
A-5-5---5-5--3--1-1---1-1---5--------|
E------------------------------------|

VERSE:
   P.M. the part in ( )
E----------------------------------|
B----------------------------------|
G------------------------------8---|
D-(7--5--3--7--5--3--7--5--3)--8---|x2
A-(7--5--3--7--5--3--7--5--3)--8---|
E-(5--3--1--5--3--1--5--3--1)--0---|


E----------------------------------|
B----------------------------------|
G------------------------------6---|
D-(7--5--3--7--5--3--7--5--3)--6---|x2
A-(7--5--3--7--5--3--7--5--3)--6---|
E-(5--3--1--5--3--1--5--3--1)--0---|

CHORUS:

E--------------------------------------------------|
B--------------------------------------------------|
G------7-------7-------7---------5-----------------|x2
D-7-7--7--7-7--7--7-7--7--5-5-5--5-----------------|
A-7-7--5--7-7--5--7-7--5--5-5-5--3-----------------|
E-5-5-----5-5-----5-5-----3-3-3--------------------|


then you will hear drums up to the solo!


  SOLO:

E-15b-15h16----------16b-18b-----13p-14p-15p-16p-15p-14p-20b-------------|
B-----------17-15-17---------17b-----------------------------18-17-16-15-|
G------------------------------------------------------------------------|
D------------------------------------------------------------------------|
A------------------------------------------------------------------------|
E------------------------------------------------------------------------|

CHORUS:


E--------------------------------------------------|
B--------------------------------------------------|
G------7-------7-------7---------5-----------------|x2
D-7-7--7--7-7--7--7-7--7--5-5-5--5-----------------|
A-7-7--5--7-7--5--7-7--5--5-5-5--3-----------------|
E-5-5-----5-5-----5-5-----3-3-3--------------------|


OUTRO:


E--------------------------------------------|
B--------------------------------------------|
G------7-------5-------7-------5--7----------|
D-7-7--7--5-5--5--7-7--7--5-5--5--7----------|
A-7-7--5--5-5--3--7-7--5--5-5--3--5----------|
E-5-5-----3-3-----5-5-----3-3----------------|


this is like the best song!
ROL!
Добавлено: 14.06.2012
Другие материалы по этой песне:
  • Аккорды и текст

Страница создана 14.06.2012
http://primanota.ru/distortion/its-all-over-chords.htm
Привет, Гость.
Предлагаем пройти революционный курс по гитаре.
Подарок от PrimaNota.Ru, забирай!