PrimaNota.ru - самый крупный в мире бесплатный архив песенных текстов, аккордов, табулатур и нот


Distillers - Open Sky - текст песни, таба, бас-таба, видео

Регистрация Запомнить меня
Войти через:  Facebook Google Twitter Vk Yandex Mail.ru

Distillers - Open Sky - текст песни, таба, бас-таба, видео

Печатать
Просмотров: 171
 artist: the distillers
 song title: open sky
 album: the distillers

 tuning: standard

 intro
 clean tone
 1   2   3   4    1   2   3   4    1   2   3   4    1   2   3   4
|----------------|----------------|----------------|----------------|
|----------------|----------------|----------------|----------------|
|----------------|----------------|----------------|----------------|
|----------------|----------------|----------------|----------------|
|3===============|================|3===============|================|
|------------0===|1===============|------------0===|1===============|

 1   2   3   4    1   2   3   4    1   2   3   4    1   2   3   4
|----------------|----------------|----------------|----------------|
|----------------|----------------|----------------|----------------|
|----------------|----------------|----------------|----------------|
|----------------|----------------|----------------|----------------|
|----------------|----------------|3===============|----------------|
|3===============|1===============|----------------|1===============|

 1   2   3   4    1   2   3   4    1   2   3   4    1   2   3   4
|----------------|----------------|----------------|----------------|
|----------------|----------------|----------------|----------------|
|----------------|----------------|----------------|----------------|
|----------------|----------------|----------------|----------------|
|3===============|----------------|----------------|----------------|
|----------------|1===============|3===============|1===============|

distortion
  1   2   3   4
|-----------------|
|-----------------|
|-----------------|
|-----------------|
|-----------------|
|(1)==============|

  verse
   1   2   3   4    1   2   3   4
 /|----------------|------------------|
| |----------------|------------------|
2x|5-5-5-5-5-5-5-5-|------------------|
2x|5-5-5-5-5-5-5-5-|3-3-3-3-3-3-3-3---|
| |3-3-3-3-3-3-3-3-|3-3-3-3-3-3-3-3---|
 \|----------------|1-1-1-1-1-1-1-1---|
1   2   3   4    1   2   3   4
|----------------|----------------|\--|
|----------------|----------------|---|
|----------------|--------------------|2x
|5-5-5-5-5-5-5-5-|3-3-3-3-3-3-3-3-----|2x
|5-5-5-5-5-5-5-5-|3-3-3-3-3-3-3-3-----|
|3-3-3-3-3-3-3-3-|1-1-1-1-1-1-1-1-----|

   chorus
   1   2   3   4    1   2   3   4    1   2   3   4    1   2   3   4
 /|----------------|----------------|----------------|----------------|
| |----------------|----------------|----------------|----------------|
2x|5-5-5-5-5-5-5-5-|----------------|3-3-3-3-3-3-3-3-|----------------|
2x|5-5-5-5-5-5-5-5-|3-3-3-3-3-3-3-3-|3-3-3-3-3-3-3-3-|3-3-3-3-3-3-3-3-|
| |3-3-3-3-3-3-3-3-|3-3-3-3-3-3-3-3-|1-1-1-1-1-1-1-1-|3-3-3-3-3-3-3-3-|
 \|----------------|1-1-1-1-1-1-1-1-|----------------|1-1-1-1-1-1-1-1-|2x
               h h              h h              h h              h h

   1   2   3   4    1   2   3   4    1   2   3   4    1   2   3   4
  |----------------|----------------|----------------|----------------|\--|
  |----------------|----------------|----------------|----------------|---|
  |5-5-5-5-5-5-5-5-|----------------|3-3-3-3-3-3-3-3-|--------------------|2x
  |5-5-5-5-5-5-5-5-|3-3-3-3-3-3-3-3-|3-3-3-3-3-3-3-3-|3-3-3-3-2--2--2-----|2x
  |3-3-3-3-3-3-3-3-|3-3-3-3-3-3-3-3-|1-1-1-1-1-1-1-1-|3-3-3-3-2--2--2-|---|
  |----------------|1-1-1-1-1-1-1-1-|----------------|1-1-1-1-0--0--0-----|
               h h              h h              h h

  verse2x                  legend:= held note

  chorus                          h harmonic

  bass solo(don't play)           note: this probably isn't 100% correct,

  verse                           but it works for me. the numbers i put

  chorus                          above the staffs are tellin what beat it

  verse                           is. well, i guess just go learn this song

  end                             now. PUNK'S NOT DEAD!!!!!!!!!!!!!!!!!!!!
Добавлено: 22.03.2012
Другие материалы по этой песне:

Страница создана 17.03.2012
http://primanota.ru/distillers/open-sky-chords.htm
Привет, Гость.
Предлагаем пройти революционный курс по гитаре.
Подарок от PrimaNota.Ru, забирай!