PrimaNota.ru - самый крупный в мире бесплатный архив песенных текстов, аккордов, табулатур и нот


Distillers - I Understand - текст песни, таба, видео

Регистрация Запомнить меня
Войти через:  Facebook Google Twitter Vk Yandex Mail.ru

Distillers - I Understand - текст песни, таба, видео

Печатать
Просмотров: 92
The Distillers - I Understand
Sing Sing Death House (2002)
Standard Tuning


e-------------------------------|
b-------------------------------|
g-------------------------------|
d-8-8-8-8-8-8-10----------------| x4
a-6-6-6-6-6-6-8-10101010101010--|
E---------------8-8-8-8-8-8-8---|

then...
(let's call it part A
e-------------------------------|
b-------------------------------|
g---------------9-9-9-9-9-9-9---|
d-5-5-5-5-5-5-5-9-9-9-9-9-9-9---|
a-5-5-5-5-5-5-5-7-7-7-7-7-7-7---|
E-3-3-3-3-3-3-3-----------------|
                                            5   9
                                            5 & 9
then at "When I was a teen..." you just hit 3   7

back to part A


(Then let's call this one part B)
e----------------|
b----------------|
g----------------|
d-10-9-4-8-3-----|
a-10-9-4-8-3-----|
E-8--7-2-6-1-----|


e--------------------------------------------------------|
b--------------------------------------------------------|
g-------------------------------------------9-9-9-9-9-9--|
d-5-5-5-5-5-5-5-2-2-2-2-2-2-2-5-5-5-5-5-5-5-9-9-9-9-9-9--|
a-5-5-5-5-5-5-5-2-2-2-2-2-2-2-5-5-5-5-5-5-5-7-7-7-7-7-7--|
E-3-3-3-3-3-3-3-0-0-0-0-0-0-0-3-3-3-3-3-3-3--------------|

Part A & Part B (repeat as many times needed)

and last...

e--------------------------|
b--------------------------|
g-8-8----------------------|
d-8-8----------------------| x3
a-6-6-1010-----------------|
E-----8-8------------------|

Done!
Hope it's not too confusing!
Добавлено: 23.08.2013
Другие материалы по этой песне:
  • Аккорды и текст

Страница создана 05.05.2012
http://primanota.ru/distillers/i-understand-chords.htm
Привет, Гость.
Предлагаем пройти революционный курс по гитаре.
Подарок от PrimaNota.Ru, забирай!