PrimaNota.ru - самый крупный в мире бесплатный архив песенных текстов, аккордов, табулатур и нот


Distillers - Blackhearth - бас-таба, видео

Регистрация Запомнить меня
Войти через:  Facebook Google Twitter Vk Yandex Mail.ru

Distillers - Blackhearth - бас-таба, видео

Печатать
Просмотров: 82
PART1        8X
G--------------I--------|I
D--------------I--------|I
A-22-33--------I-22-33--|I
E-------33-333-I--------|I

PART2                        3X
G------------------------------I---------------------------|I
D------------------------------I---------------------------|I
A-44-444--------22-222----22-3-I-44-444--------22-222------|I
E--------44-444--------22------I--------44-444--------2-2--|I

REPEAT PART1

PART3
G---------------------------------------------------------|
D--------6-64-2----------------------4-42-----------------|
A-44-444---------------6-64-2-22-222------4--------2-23-4-|
E---------------44-444----------------------22-222--------|
PT3 CONT.
G---------------------------------------------------------|
D------------------------------------4-42-----------------|
A-44-444-44-444--------6-64-2-22-222------4--------2-23-4-|
E---------------44-444----------------------22-222--------|

PT3 CONT.
G------------------------------------------------------|
D------------------------------------------------------|
A-44-444-44-444---------------22-222-22-222--------2-3-|
E---------------44-444-44-444---------------22-222-----|

PT3 CONT.
G------------------------------------------------------|
D------------------------------------------------------|
A-44-444-44-444---------------22-222-22-222--------2-3-|
E---------------44-444-44-444---------------22-222-----|

REPEAT PART3

G---------------------------------------------------------|
D--------6-64-2----------------------4-42-----------------|
A-44-444---------------6-64-2-22-222------4--------2-23-4-|
E---------------44-444----------------------22-222--------|

G------------------------------------------------------|
D------------------------------------4-42--------------|
A-44-444-44-444--------6-64-2-22-222------4--------2-2-|
E---------------44-444----------------------22-222-----|

G-----------|
D-----------|
A-2-3-------|
E-----3-3-3-|

if you have a beter version plz send it to me..
  xxSID
Добавлено: 16.01.2014
Другие материалы по этой песне:
  • Аккорды и текст

Страница создана 16.01.2014
http://primanota.ru/distillers/blackhearth-chords.htm
Привет, Гость.
Предлагаем пройти революционный курс по гитаре.
Подарок от PrimaNota.Ru, забирай!