PrimaNota.ru - самый крупный в мире бесплатный архив песенных текстов, аккордов, табулатур и нот


Distillers - Ask The Angels - текст песни, таба, бас-таба, видео

Регистрация Запомнить меня
Войти через:  Facebook Google Twitter Vk Yandex Mail.ru

Distillers - Ask The Angels - текст песни, таба, бас-таба, видео

Печатать
Просмотров: 128
Уроки эстрадного вокала в Санкт-Петербурге
Авторы: Ivan Král, Patti Smith

Ask The Angels - The Distillers - The Distillers

All the other tabs for this song are so wrong so I tried to figure it out myself. The 
(more so the 2nd on) aren't 100% perfect but they're much better then the other versions. 
anyone has a better version please email it to me!! (youngcrazedpunk555@hotmail.com)

Intro/Verse
e|----------|
b|--10------|
g|--11--11--|
d|--11--12--|
a|---9--12--|
E|------10--|

Chorus 1
e|--------|--------------|
b|--------|--8--8--7-----|
g|--9--7--|-----------7--|
d|--9--7--|--------------|
a|--7--5--|--------------|
E|--------|--------------|

“Wild Wild Wild...” (1st time)
e|-----|
b|-----|
g|--9--|
d|--9--|
a|--7--|
E|-----|

Solo 1
e|-13-15-16-18b-16-18b-18-18-16----16-18-16-18b-16-----------------------------------------|
b|------------------------------18-----------------18~----------------------------------6~-|
g|----------------------------------------------------------------------------------5-8----|
d|----------------------------------------------------------------------------5-6-8--------|
a|---------------------------------------------------------------6--------6-8--------------|
E|-----------------------------------------------------6h8p6-4-8---6b-4h6------------------|

Chorus 2 & 3
e|--------|--------------|
b|--------|--7--7--6-----|
g|--8--6--|-----------6--|
d|--8--6--|--------------|
a|--6--4--|--------------|
E|--------|--------------|

“Wild Wild Wild...” (2nd & 3rd & last time)/Outro
e|-----|
b|-----|
g|--8--|
d|--8--|
a|--6--|
E|-----|

Solo 2
e|-13-13-13-13-13-13-13-11------------------------------------------------------------------------|
b|----------------------------13-11~-11-11------------------8-9----9----9-11---------------9----9-|
g|-------------------------13--------------10-10-10-10-8-10-----10---10------10-9-8-9-10-8---10---|
d|------------------------------------------------------------------------------------------------|
a|------------------------------------------------------------------------------------------------|
E|------------------------------------------------------------------------------------------------|

e|---------------13~-16~-|
b|-----9----9-11---------|
g|--10---10--------------|
d|-----------------------|
a|-----------------------|
E|-----------------------|
Добавлено: 27.09.2013
Другие материалы по этой песне:
  • Аккорды и текст

Страница создана 28.02.2012
http://primanota.ru/distillers/ask-the-angels-chords.htm
Привет, Гость.
Предлагаем пройти революционный курс по гитаре.
Подарок от PrimaNota.Ru, забирай!