PrimaNota.ru - самый крупный в мире бесплатный архив песенных текстов, аккордов, табулатур и нот


Disteverd - Life - таба

Регистрация Запомнить меня
Войти через:  Facebook Google Twitter Vk Yandex Mail.ru

Disteverd - Life - таба

Печатать
Просмотров: 61
Уроки эстрадного вокала в Санкт-Петербурге
Hello this is some of my own work it is a little tricky at times but once
You get right it sounds good, really good well here it goes


Written  by Jeremiah Richardson
    Submitted by Jeremiah Richardson

Acoustic version
Standard Eb tuning

Intro  repeat 2x
    C
E-----------------------------------------------------------------------
B---------------------0h1---0h1-----------------------0h1---0h1----
G--------------------------0------0-----------------------0------0--   
D---------0---0h2-------------------------0---0h2--------------------
A---0h3----3------3-----------------0h3----3------3------------------
E------------------------------------------------------------------------

E-----------------------------------------------------------------------
B------------------------0h1---0h1----------------- 0h1-0h1---------
G------------------------   0----0-----0-------------- 0---0----0---
D----------------------------------------------------------------------
A--------0----0h2--------------------------0  0h2--------------
E---0h3----3------3--------------------0h3--3-----3------------------

Chorus    repeat 2x
   C                                      G7
E-0-----0--0-0--0-0-0-0---------0-----0-0-0--0-0-0-0------------------
B-0h1- -1--1-1--4-1-4-1---------0h1 --1-1-1--4-1-4-1------------------
G-0-----0--0-0--0-0-0-0---------0-----0-0-0--0-0-0-0------------------
D-2-----2--2-2--2-2-2-2---------0-----0-0-0--0-0-0-0------------------
A-3-----3--3-3--3-3-3-3---------2-----2-2-2--2-2-2-2------------------
E-------------------------------3-----3-3-3--3-3-3-3---------------
     
Добавлено: 14.07.2013
Вам также может быть интересно:
Другие материалы по этой песне:
  • Аккорды и текст

Страница создана 14.07.2013
http://primanota.ru/disteverd/life-chords.htm
Привет, Гость.
Предлагаем пройти революционный курс по гитаре.
Подарок от PrimaNota.Ru, забирай!