PrimaNota.ru - самый крупный в мире бесплатный архив песенных текстов, аккордов, табулатур и нот


Dispicables - Typical Highschool Song - аккорды и текст, видео

Регистрация Запомнить меня
Войти через:  Facebook Google Twitter Vk Yandex Mail.ru

Dispicables - Typical Highschool Song - аккорды и текст, видео

Печатать
Просмотров: 74
Typical Highschool Song
Dispicables
Artist: The Dispicables
Song:   Typical Highschool Song
Album:  if i was 80

this is how chris(guitarist) plays it on stage so its pretty right.its
actually a pretty dam good song for a local band.

r-ring out

intro: play clean

e/-----------------------------------------------
B/-----------------------------------------------
G/------------------------------5-----------7----
D/------5-----------2-------------5-----------7--
A/--------5-----------2---3-3-3-----3-5-5-5-----5
E/3-3-3-----3-0-0-0-----0------------------------

e/------------------------------------
B/------------------------------------
G/------------------------------5---7r
D/------5-----------2-------------5-7r
A/--------5-----------2---3-3-3-----5r
E/3-3-3-----3-0-0-0-----0-------------

verse: play distorted

e/--------------------------------
B/--------------------------------
G/----------------2-2-2-2-2-2-2-2-
D/5--5-5-5-5-5-5-2-2-2-2-2-2-2-2-
A/5--5-5-5-5-5-5-0-0-0-0-0-0-0-0-
E/3-3-3-3-3-3-3-3-----------------

e/--------------------------------
B/--------------------------------
G/5--5-5-5-5-5-5-7-7-7-7-7-7-7-7-
D/5--5-5-5-5-5-5-7-7-7-7-7-7-7-7-
A/3-3-3-3-3-3-3-3-5-5-5-5-5-5-5-5-
E/--------------------------------

chorus: played just like the verse but quarter notes instead           
of 16th notes.

e/----------------------------------
B/----------------------------------
G/----------------------------------
D/5--5--5--5--5--5--2--2--2--2--2--2
A/5--5--5--5--5--5--2--2--2--2--2--2
E/3--3--3--3--3--3--0--0--0--0--0--0

e/----------------------------------
B/----------------------------------
G/5--5--5--5--5--5--7--7--7--7--7--7
D/5--5--5--5--5--5--7--7--7--7--7--7
A/3--3--3--3--3--3--5--5--5--5--5--5
E/----------------------------------

bridge: distortion(rhythm is just like chorus)

e/----------------------------------
B/----------------------------------
Gadd9--9--9--9--9--9--9--9--9--9--9--9
Dadd9--9--9--9--9--9--9--9--9--9--9--9
Aadd7--7--7--7--7--7--7--7--7--7--7--7
E/----------------------------------

e/----------------------------------
B/----------------------------------
G/5--5--5--5--5--5--5--5--5--5--5--5
D/5--5--5--5--5--5--5--5--5--5--5--5
A/3--3--3--3--3--3--3--3--3--3--3--3
E/----------------------------------

e/----------------------------------
B/----------------------------------
G/----------------------------------
D/5--5--5--5--5--5--5--5--5--5--5--5
A/5--5--5--5--5--5--5--5--5--5--5--5
E/3--3--3--3--3--3--3--3--3--3--3--3

e/----------------------------------
B/----------------------------------
Gadd7--7--7--7--7--7--7--7--7--7--7--7
Dadd7--7--7--7--7--7--7--7--7--7--7--7
A/5--5--5--5--5--5--5--5--5--5--5--5
E/----------------------------------

this is how it goes:

intro 1x (clean)
verse 10x (distortion)
chorus 2x (distortion)
verse 4x (distortion)
chorus 2x (distortion)
bridge 2x (distortion)
chorus 4x (distortion)

     
Добавлено: 24.07.2013
Другие материалы по этой песне:
  • Аккорды и текст

Страница создана 24.07.2013
http://primanota.ru/dispicables/typical-highschool-song-chords.htm
Привет, Гость.
Предлагаем пройти революционный курс по гитаре.
Подарок от PrimaNota.Ru, забирай!