PrimaNota.ru - самый крупный в мире бесплатный архив песенных текстов, аккордов, табулатур и нот


Dispensing Of False Halos - If I Were Erased - таба, видео

Регистрация Запомнить меня
Войти через:  Facebook Google Twitter Vk Yandex Mail.ru

Dispensing Of False Halos - If I Were Erased - таба, видео

Печатать
Просмотров: 76
DISPENSING OF FALSE HALOS - IF I WERE ERASED

http://www.last.fm/music/Dispensing+Of+False+Halos

    e|----------------------------------------|
    b|----------------------------------------|
GTR G|----8888-7777-8888-10101010-8888-7777-8-|
1+2 D|----------------------------------------| 1,3
    A|-0--------------------------------------|
    D|-0--------------------------------------|
      PM

    e|------------------------------------|
    b|------------------------------------|
GTR G|----8888-7777-8888------5555--------|
1+2 D|-------------------8888------7777-8-| 2
    A|-0----------------------------------|
    D|-0----------------------------------|
      PM

    e|-----------------------------------------------|
    b|----------------------------8888---------------|
GTR G|----8888-7777-8888-10101010------10101010-8888-|
1+2 D|-----------------------------------------------| 4
    A|-0---------------------------------------------|
    D|-0---------------------------------------------|
      PM

    e|-------------------------|
    b|-------------------------|
GTR G|-------------------------|
1+2 D|----0h1--5p4-4p3-3p2-0h1-|
    A|-0-----------------------|
    D|-0-----------------------|
      PM

    e|-----------------------|
    b|-----------------------|
GTR G|-----------------------|
1+2 D|------0h1----1----5--4-|
    A|-0--0-----0----0-------|
    D|-0--0-----0----0-------|
       P  M     PM   PM

    e|---------------------------|
    b|---------------------------|
GTR G|---------------------------|
1+2 D|------0h1--5p4-4p3-3p2-0h1-|
    A|-0-0-----------------------|
    D|-0-0-----------------------|
       P M

    e|--------------------------------|
    b|--------------------------------|
GTR G|--------------------------------|
1+2 D|-0------0h1----5p4-4p3-3p2----1-|
    A|-0--0-0-----0--------------0----|
    D|-0--0-0-----0--------------0----|
          P M     PM             PM

    e|---------------------------|
    b|---------------------------|
GTR G|---------------------------|
1+2 D|------0h1--5p4-4p3-3p2-0h1-|
    A|-0-0-----------------------|
    D|-0-0-----------------------|
       P M

    e|----------------------|
    b|----------------------|
GTR G|----------------------|
1+2 D|-0----1---1-5555-4444-|
    A|-0--0---0-------------|
    D|-0--0---0-------------|  
         PM  PM

    e|---------------------------|
    b|---------------------------|
GTR G|---------------------------|
1+2 D|-0----0h1--5p4-4p3-3p2-0h1-|
    A|-0-0-----------------------|
    D|-0-0-----------------------|
         PM

    e|---------------|
    b|---------------|
GTR G|---------------|
1+2 D|-0------0h1----|
    A|-0--0-0-----0--|
    D|-0--0-0-----0--|
          P M     PM             

    e|---------------------|
    b|---------------------|
GTR G|---------------------|
1+2 D|-5555-4444-----------| x3
    A|-----------6666-5----|
    D|---------------------|

    e|---------------------------|
    b|---------------------------|
GTR G|---------------------------|
1+2 D|-5555-4444-----------------| 
    A|-----------6666-5----------|
    D|---------------------------|

    e|-----|
    b|-----|
GTR G|-----|
1+2 D|-----| x12
    A|-6p5-|
    D|-----|

    e|-------------|
    b|-------------|
GTR G|-------------|
1+2 D|-------------| 
    A|-6p5---------|
    D|-------------|

    e|--------15---------------------------12-------12----------------------|
    b|-----13-------13------8-----------------10-------------8----8h10p8----|
GTR G|-----------16-----------10----10-----------10-------10---10--------10-|
 1  D|---------------------------10-----------------------------------------|
    A|----------------------------------------------------------------------|
    D|----------------------------------------------------------------------|

    e|----------------------------------------------------------------------|
    b|-----------------8----------------------------------------------------|
GTR G|----------------------------------------------------------------------|
 2  D|-----------------10--12-12-10-10-10-------------0---------------------|
    A|-15-------------------------------------------------------------------|
    D|----------------------------------------------------------------------|
       PM

    e|--------15------------------------------12-------12-|
    b|-----13-------13------------8--------------10-------|
GTR G|-----------16---------10------10--------------10----|
 1  D|-------------------------10------10-----------------|
    A|----------------------------------------------------|
    D|----------------------------------------------------|

    e|----------------------------------------------------|
    b|-----------------8--8-------------------------------|
GTR G|-5h7------------------------------------------------|
 2  D|-----------------10-10--------------10--------------|
    A|----------------------------------------------------|
    D|----------------------------------------------------|

    e|-------------------15-------15-------------------12-------12-|
    b|----8-----------------12-----------8----------------10-------|
GTR G|------10---10------------12----------10----10----------10----|
 1  D|---------0------------------------------10-------------------|
    A|-------------------------------------------------------------|
    D|-------------------------------------------------------------|

    e|----------------------------------------------12--12--12-----|
    b|----------------------------------------------10--10--10-----|
GTR G|----------------------------------------------10--10--10-----|
 2  D|-0------------10---------------10-------------10--10--10-----|
    A|-------------------------------------------------------------|
    D|-------------------------------------------------------------|

    e|-------------------------------------------------------12-------12-|
    b|----8--------------------0----0----------8----------------10-------|
GTR G|------10---10---------10---10----10--------10----10----------10----|
 1  D|---------0---------10-------------------------10-------------------| x2
    A|-------------------------------------------------------------------|
    D|-------------------------------------------------------------------|

    e|----------------------------------------------------12-------------|
    b|----------------------------------------------------10-------------|
GTR G|----------------------------------------------------10-------------|
 2  D|-0------------10---------------------10-------------10-------------| x2
    A|-------------------------------------------------------------------|
    D|-------------------------------------------------------------------|       

    e|--------------------------------------------------------12-----12-|
    b|----8--------------------0----0----------8------------------------|
GTR G|------10---10---------10---10----10--------10----10-----10-----10-|
 1  D|---------0---------10-------------------------10------------------| 
    A|----------------------------------------------------0-0-----0-----|
    D|----------------------------------------------------0-0-----0-----|
                                                          P M     PM

    e|--------------------------------------------------------12-----12-|
    b|------------------------------------------------------------------|
GTR G|--------------------------------------------------------10-----10-|
 2  D|-0------------10---------------------10---------------------------|
    A|----------------------------------------------------0-0-----0-----|
    D|----------------------------------------------------0-0-----0-----|
                                                          P M    PM 

    e|-------------------------------------------------------12-----12-|
    b|----8--------------------0----0----------8-----------------------|
GTR G|------10---10---------10---10----10--------10----10----10-----10-|
 1  D|---------0---------10-------------------------10-----------------| x4 
    A|----------------------------------------------------0-0----0-----|
    D|----------------------------------------------------0-0----0-----|
                                                          P M    PM

    e|--------------------------------------------------------12-----12-|
    b|-------------------------------8--8--8--8--8--8-------------------|
GTR G|-7-7-7-7-7-7-12-12-12-12-12-12-10-10-10-10-10-10--------10-----10-|
 2  D|-7-7-7-7-7-7-12-12-12-12-12-12-10-10-10-10-10-10------------------| x4
    A|-5-5-5-5-5-5-10-10-10-10-10-10-8--8--8--8--8--8-----0-0-----0-----|
    D|----------------------------------------------------0-0-----0-----|
                                                          P M     PM

    e|---12-|
    b|------|
GTR G|---10-|
1+2 D|------| x4
    A|-0----|
    D|-0----|
      PM

    e|---12---------------|
    b|--------------------|
GTR G|---10---------------|
1+2 D|--------------------|
    A|-0------------------|
    D|-0------------------|
      PM

    e|----------------------------------------------------------|
    b|----------------------------------------------------------|
GTR G|----------12-10-9-12-10-9-12-10-------------5555-4444-----|
1+2 D|-0------------------------------3------3--------------5h7-| x4
    A|-0------------------------------3--3-3-3------------------|
    D|-0------------------------------3--3-3-3------------------|
                                         P M

    e|---------------------12---------------------------12-|
    b|-----------------------------------------------------|
GTR G|---------------------10---------------------------10-|
1+2 D|-----------------------------------------------------|
    A|-0---000-000-000-000-----000-000--000-000-000-000----|
    D|-0---000-000-000-000-----000-000--000-000-000-000----|
           P M P M P M P M     P M P M  P M P M P M P M

    e|---------------------------------|
    b|---------------------------------|
GTR G|-10101010-99999999-5555555555----|
 1  D|------------------------------33-|
    A|---------------------------------|
    D|---------------------------------|

    e|----------------------------|
    b|----------------------------|
GTR G|----------------------------|
 2  D|----------------------------| 
    A|-000-000--000-000-000-000---|
    D|-000-000--000-000-000-000-3-|
       P M P M  P M P M P M P M

    e|-----------------------------------------|
    b|-----------------------------------------|
GTR G|-10101010-99999999-1010-99---------------|
 1  D|---------------------------1010-12121212-|
    A|-----------------------------------------|
    D|-----------------------------------------|

    e|----------------------------|
    b|----------------------------|
GTR G|----------------------------|
 2  D|----------------------------| 
    A|-000-000--000-000-000-000-3-|
    D|-000-000--000-000-000-000---|
       P M P M  P M P M P M P M

    e|--------------------------------|
    b|--------------------------------|
GTR G|-10101010-99999999-555555555555-|
 1  D|--------------------------------|
    A|--------------------------------|
    D|--------------------------------|

    e|----------------------------|
    b|----------------------------|
GTR G|----------------------------|
 2  D|----------------------------| 
    A|-000-000--000-000-000-000---|
    D|-000-000--000-000-000-000-3-|
       P M P M  P M P M P M P M

    e|---------------------------|
    b|---------------------------|
GTR G|-33333333-2222-33333333----|
 1  D|------------------------33-|
    A|---------------------------|
    D|---------------------------|

    e|-----------------------------|
    b|-----------------------------|
GTR G|-----------------------------|
 2  D|-----------------------------| 
    A|-000-000--000-000-000-000--0-|
    D|-000-000--000-000-000-000----|
       P M P M  P M P M P M P M

    e|---------------------------------|
    b|---------------------------------|
GTR G|-10101010-99999999-555555555555--|
 1  D|---------------------------------|
    A|---------------------------------|
    D|---------------------------------|

    e|----------------------------|
    b|----------------------------|
GTR G|----------------------------|
 2  D|----------------------------| 
    A|-000-000--000-000-000-000---|
    D|-000-000--000-000-000-000-3-|
       P M P M  P M P M P M P M

    e|-----------------------------------------|
    b|-----------------------------------------|
GTR G|-10101010-99999999-1010-99---------------|
 1  D|---------------------------1010-12121212-|
    A|-----------------------------------------|
    D|-----------------------------------------|

    e|----------------------------|
    b|----------------------------|
GTR G|----------------------------|
 2  D|----------------------------| 
    A|-000-000--000-000-000-000-3-|
    D|-000-000--000-000-000-000---|
       P M P M  P M P M P M P M

    e|--------------------------------|
    b|--------------------------------|
GTR G|-10101010-99999999-555555555555-|
 1  D|--------------------------------|
    A|--------------------------------|
    D|--------------------------------|

    e|----------------------------|
    b|----------------------------|
GTR G|----------------------------|
 2  D|----------------------------| 
    A|-000-000--000-000-000-000---|
    D|-000-000--000-000-000-000-3-|
       P M P M  P M P M P M P M

    e|---------------------------|
    b|---------------------------|
GTR G|-33333333-2222-33333333----|
 1  D|------------------------33-|
    A|---------------------------|
    D|---------------------------|

    e|-----------------------------|
    b|-----------------------------|
GTR G|-----------------------------|
 2  D|-----------------------------| 
    A|-000-000--000-000-000-000--0-|
    D|-000-000--000-000-000-000----|
       P M P M  P M P M P M P M

    e|----------------------------|
    b|----------------------------|
GTR G|----------------------------|
1+2 D|----------------------------| 1,3
    A|-000-000--000-000-000-000---|
    D|-000-000--000-000-000-000-3-|
       P M P M  P M P M P M P M

    e|----------------------------|
    b|----------------------------|
GTR G|----------------------------|
1+2 D|----------------------------| 2
    A|-000-000--000-000-000-000-3-|
    D|-000-000--000-000-000-000---|
       P M P M  P M P M P M P M

    e|-----------------------------|
    b|-----------------------------|
GTR G|-----------------------------|
 2  D|-----------------------------| 4
    A|-000-000--000-000-000-000--0-|
    D|-000-000--000-000-000-000----|
       P M P M  P M P M P M P M

    e|---------------------------------|
    b|---------------------------------|
GTR G|-10101010-99999999-5555555555----|
 1  D|------------------------------33-|
    A|---------------------------------|
    D|---------------------------------|

    e|----------------------------|
    b|----------------------------|
GTR G|----------------------------|
 2  D|----------------------------| 
    A|-000-000--000-000-000-000---|
    D|-000-000--000-000-000-000-3-|
       P M P M  P M P M P M P M

    e|-----------------------------------------|
    b|-----------------------------------------|
GTR G|-10101010-99999999-1010-99---------------|
 1  D|---------------------------1010-12121212-|
    A|-----------------------------------------|
    D|-----------------------------------------|

    e|--------------------------|-|
    b|----------------------------|
GTR G|----------------------------|
 2  D|----------------------------| 
    A|-000-000--000-000-000-000-3-|
    D|-000-000--000-000-000-000---|
       P M P M  P M P M P M P M

    e|--------------------------------|
    b|--------------------------------|
GTR G|-10101010-99999999-555555555555-|
 1  D|--------------------------------|
    A|--------------------------------|
    D|--------------------------------|

    e|----------------------------|
    b|----------------------------|
GTR G|----------------------------|
 2  D|----------------------------| 
    A|-000-000--000-000-000-000---|
    D|-000-000--000-000-000-000-3-|
       P M P M  P M P M P M P M

    e|---------------------------|
    b|---------------------------|
GTR G|-3333333333333333333333333-|
 1  D|---------------------------|
    A|---------------------------|
    D|---------------------------|

    e|-----------------------------|
    b|-----------------------------|
GTR G|-----------------------------|
 2  D|-----------------------------| 
    A|-000-000--000-000-000-000--0-|
    D|-000-000--000-000-000-000----|
       P M P M  P M P M P M P M

    e|------------------|
    b|------------------|
GTR G|------------------|
1+2 D|-0----------------|
    A|------------------|
    D|------------------|
Добавлено: 29.09.2013
Другие материалы по этой песне:
  • Аккорды и текст

Страница создана 29.09.2013
http://primanota.ru/dispensing-of-false-halos/if-i-were-erased-chords.htm
Привет, Гость.
Предлагаем пройти революционный курс по гитаре.
Подарок от PrimaNota.Ru, забирай!