PrimaNota.ru - самый крупный в мире бесплатный архив песенных текстов, аккордов, табулатур и нот


Dispatched - One - таба, видео

Регистрация Запомнить меня
Войти через:  Facebook Google Twitter Vk Yandex Mail.ru

Dispatched - One - таба, видео

Печатать
Просмотров: 154
Уроки эстрадного вокала в Санкт-Петербурге
DISPATCHED
ONE (metallica cover)
tabbed by T
death threats or donations to the beer fund go to
wasssup@hotmail.co.uk
tuning: eb Bb Gb Db Ab Eb

this is an awesome cover, and i kind of prefer it to the original,
but thats just me.

no proper timings or anything, just what he plays

INTRO (acoustic)

e-----------------------------------------|
B-----------------------------------------|
G--------------------------------------0--|
D---4---0-----4---0-----4---0----4---0----|
A-2---2---------------2---2---------------|
E-----------3---3--------------3---3------|

e-------------------------------------|
B-------------------------------------|
G-------------------------------------|
D---4---0-----4---0-----4---0---------|
A-2---2-----0---0---------------2---2-|
E---------------------3---3---0---2---|

e----------------------------------------------------------|
B------------------------------10-88p777p555p3-3-5-5/7-----|
G-----7-9-9/11-11~----7-9-9/11-------------------------4-4-|
D-7h9-------------7h9--------------------------------------|
A----------------------------------------------------------|
E----------------------------------------------------------|

e----------------------------------1010p999p777p5-7-7/9------|
B-----------------------10------------------------------7p57-|
G-----7-9-9/11-11~----7----9/11-11---------------------------|
D-7h9-------------7h9----------------------------------------|
A------------------------------------------------------------|
E------------------------------------------------------------|

e-----------------------------------------|
B-----------------------10-12-14-14b15-12-|
G-9-9p7---9-9p7-9/11-/11------------------|
D-------9---------------------------------|
A-----------------------------------------|
E-----------------------------------------|

e------------------121212/101010/99977-121212/101010/99977-|
B-1212-14-14b15-12-----------------------------------------|
G----------------------------------------------------------|
D----------------------------------------------------------|
A----------------------------------------------------------|
E----------------------------------------------------------|

e-121212/101010/999779-9b10-7~-|
B------------------------------|
G------------------------------|
D------------------------------|
A------------------------------|
E------------------------------|

VERSE (no vocals)

e---------------------------------------------|
B---------------------------------------------|
G---------------------------------------------|
D---4---0040---4---0440---4---0040---4---0440-|
A-2---2-----------------2---2-----------------|
E------------3---3-----------------3---3------|

e------------------------------------------|
B------------------------------------------|
G---------------------0--------------------|
D---4---0040---4---044----4---0440---------|
A-2---2------0---0-------------------2---2-|
E-----------------------3---3------0---2---|
im assuming this is what he plays next
e-------------------------|
B-------------------------|
G-------------------------|
D---2h4-2---------0-------|
A-----------4---5-------7-|
E-0-------2---3-----3-5---|

NICE SHINY JANGLY BIT
shamelessly borrowed from the 'tallica tab
e|------------------------------------------|
B|-------------------------0h3p0---0h3p0----|
G|-------0-7-----0------4--------4-------0--|
D|----7-------7------5----------------------|
A|-5----------------------------------------|
E|------------------------------------------|


e|-------------------------0----|
B|-----------------------0---0--|
G|------0-10----0------0--------|
D|---10------10------9----------|
A|-8---------------7------------|
E|------------------------------|


e|------------------------------------------|
B|-------------------------0h3p0---0h3p0----|
G|-------0-7-----0------4--------4-------0--|
D|----7-------7------5----------------------|
A|-5----------------------------------------|
E|------------------------------------------|


e|------------------------------|
B|-----------------------0------|
G|------0-10----0------0--------|
D|---10------10------9----------|
A|-8---------------7--------/3--|
E|------------------------------|

VERSE

e---------------------------------------------|
B---------------------------------------------|
G---------------------------------------------|
D---4---0040---4---0440---4---0040---4---0----|
A-2---2-----------------2---2-----------------|
E------------3---3-----------------3---3------|
                                                 )X2
e------------------------------------------|
B------------------------------------------|
G---------------------0--------------------|
D---4---0040---4---044----4---0440---------|
A-2---2------0---0-------------------2---2-|
E-----------------------3---3------0---2---|

CHORUS
once again nicked from the 'tallica tab
e|--------------------------------------|
B|--------------------------------------|
G|--------------------------------------|
D|-----2-4-2-------4-2--4-6-4-2---------|
A|-5---0-2-0-5--4--2-0--2-4-2-0--3~-4~--|
E|-3---------3--2-----------------------|

NICE SHINY JANGLY BIT
still shamelessly borrowed from the 'tallica tab
e|------------------------------------------|
B|-------------------------0h3p0---0h3p0----|
G|-------0-7-----0------4--------4-------0--|
D|----7-------7------5----------------------|
A|-5----------------------------------------|
E|------------------------------------------|


e|-------------------------0----|
B|-----------------------0---0--|
G|------0-10----0------0--------|
D|---10------10------9----------|
A|-8---------------7------------|
E|------------------------------|


e|------------------------------------------|
B|-------------------------0h3p0---0h3p0----|
G|-------0-7-----0------4--------4-------0--|
D|----7-------7------5----------------------|
A|-5----------------------------------------|
E|------------------------------------------|


e|------------------------------|
B|-----------------------0------|
G|------0-10----0------0--------|
D|---10------10------9----------|
A|-8---------------7--------/3--|
E|------------------------------|

VERSE

e---------------------------------------------|
B---------------------------------------------|
G---------------------------------------------|
D---4---0040---4---0440---4---0040---4---0----|
A-2---2-----------------2---2-----------------|
E------------3---3-----------------3---3------|
                                                 )X2
e------------------------------------------|
B------------------------------------------|
G---------------------0--------------------|
D---4---0040---4---044----4---0440---------|
A-2---2------0---0-------------------2---2-|
E-----------------------3---3------0---2---|

CHORUS
it's not gonna stop being nicked from the 'tallica tab
e|--------------------------------------|
B|--------------------------------------|
G|--------------------------------------|
D|-----2-4-2-------4-2--4-6-4-2---------|
A|-5---0-2-0-5--4--2-0--2-4-2-0--3~-4~--|
E|-3---------3--2-----------------------|

NICE SHINY JANGLY BIT
still shamelessly borrowed from the 'tallica tab
e|------------------------------------------|
B|-------------------------0h3p0---0h3p0----|
G|-------0-7-----0------4--------4-------0--|
D|----7-------7------5----------------------|
A|-5----------------------------------------|
E|------------------------------------------|


e|-------------------------0----|
B|-----------------------0---0--|
G|------0-10----0------0--------|
D|---10------10------9----------|
A|-8---------------7------------|
E|------------------------------|


e|------------------------------------------|
B|-------------------------0h3p0---0h3p0----|
G|-------0-7-----0------4--------4-------0--|
D|----7-------7------5----------------------|
A|-5----------------------------------------|
E|------------------------------------------|


e|------------------------------|
B|-----------------------0------|
G|------0-10----0------0--------|
D|---10------10------9----------|
A|-8---------------7------------|
E|------------------------------|

SOLO 1

e------------------------------------------|
B-10-7-7-10-1087-7-8p7---15-13-12--12-13---|
G-----7---------9-----9----------14-----12-|
D------------------------------------------|
A------------------------------------------|
E------------------------------------------|

e-17-14----14-17-17-15-14----14h15p14---|
B-------15----------------15---------15-|
G---------------------------------------|
D---------------------------------------|
A---------------------------------------|
E---------------------------------------|

e-17-----19-----20------------------------|
B---15-15--15-15--15-15-20b22-20b22-20b22-|
G-----------------------------------------|
D-----------------------------------------|
A-----------------------------------------|
E-----------------------------------------|

e----------------------------------|
B-20b22-20b22-20b22-20b22r20p18-20-|
G----------------------------------|
D----------------------------------|
A----------------------------------|
E----------------------------------|

e------20-----20-----20---------------------------------|
B-20b22--20b22--20b22--22r20p18-20-17h19p17-16h17p16-14-|
G-------------------------------------------------------|
D-------------------------------------------------------|
A-------------------------------------------------------|
E-------------------------------------------------------|

e---20--20b22-20b22r20-22b24-22b24r22-20-18-17-|
B-20--20---------------------------------------|
G----------------------------------------------|
D----------------------------------------------|
A----------------------------------------------|
E----------------------------------------------|

e-18-15-17-13-12-10-13-10-10-12-10-10~|
B-------------------------------------|
G-------------------------------------|
D-------------------------------------|
A-------------------------------------|
E-------------------------------------|

e------------------------------------------------------|
B------10-13-----10-----10-13-----10-10-10-8-8-6-6-5-5-|
G-12b14-----12b14--12b14-----12b14---------------------|
D------------------------------------------------------|
A------------------------------------------------------|
E------------------------------------------------------|

e-----------------------------------------------------------|
B-5-5h6-5-3-3h5--6-/-8-/-6-/-10~-8p6-5h6--8p6-5h6--8-6-8-10-|
G-----------------------------------------------------------|
D-----------------------------------------------------------|
A-----------------------------------------------------------|
E-----------------------------------------------------------|

e--------------------------------------|
B-8p6-8/6-5-6--8-6-5-6-8-6-5-6h8/10----|
G--------------------------------------|
D------------------------------------2-|
A------------------------------------2-|
E--------------------------------------|
volume swell on the last chord
RIFFAGE

e--------------------| X4
B--------------------|
G--------------------|
D-------2------2---3-|
A-------2------2---3-|
E-000000-000000-000--|
after the four times, leave the open powerchord to ring for four measures,
then:

SOLO 2
im not that good with shred, so this will be wrong in places
e-----------------------------------------------|
B-15b17-17p15p12-----17p15p12-----17p15p1215b17-|
G---------------14b16--------14b16--------------|
D-----------------------------------------------|
A-----------------------------------------------|
E-----------------------------------------------|

e-------------------------------------------|
B-171512------171512------171512------------|
G-------161412------161412------16141212b14-|
D-------------------------------------------|
A-------------------------------------------|
E-------------------------------------------|

e----------------------|
B----------------------|
G----------------------|
D-14129141291412914b17-|
A----------------------|
E----------------------|

e--------------------------------|
B--------------------------------|
G--------------------------------|
D-14129----14129-----------12b14-|
A------1297-----1297--14129------|
E-------------------12-----------|

e------17-| X10
B-20b22---|
G---------|
D---------|
A---------|
E---------|

e------------------1720-----1717-----1717------|
B-20b22-20b22-20b22----20b22----20b22----20b22~|
G----------------------------------------------|
D----------------------------------------------|
A----------------------------------------------|
E----------------------------------------------|

e------------------|
B------------------|
G------------------|
D-2-5-7-5-22-5-7-5-|
A-0-3-5-3-00-3-5-3-|
E------------------|
       X2     X2       X2 this bit isn't exactly right, but its the closest i could get
e-151210-----------------------|
B-------15p14p12-12p9p7--------|
G-----------------------11p7---|
D---------------------------9--|
A----------------------------7-|
E------------------------------|
this is probably wrong as well
e---------141514-----------------------|
B---141517------171514------151412-----|
G-16------------------141516------1214~|
D--------------------------------------|
A--------------------------------------|
E--------------------------------------|
this is half right. i dont know which half though.
e------------------------------------|
B------151412------------------------|
G-12h14------141210------------------|
D------------------141210------10b11-|
A------------------------141210------|
E------------------------------------|

e---------------------------------------|
B----88---88---------1515-----1515------|
G-6b7--6b7--6b7-12b13----12b13----12b13-|
D---------------------------------------|
A---------------------------------------|
E---------------------------------------|
can't work out the notes he's bending here, so ive just got the higher notes
e-141414-15151517-22b24-22b2422b24-|
B----------------------------------|
G----------------------------------|
D----------------------------------|
A----------------------------------|
E----------------------------------|

RIFFAGE

e--------------------| X16
B--------------------|
G--------------------|
D-------2------2---3-|
A-------2------2---3-|
E-000000-000000-000--|

e-----------------|
B-----------------|
G-----------------|
D---5---5---5---5-|
A---5---5---5---5-|
E-333-333-333-333-|
pm..  ..  ..  ..
e--------------------| X4
B--------------------|
G--------------------|
D-------2------2---3-|
A-------2------2---3-|
E-000000-000000-000--|
tremolo pick the slide
e------------|
B------------|
G------------|
D------------|
A------------|
E-000000-10/-|

HARMONIZED SOLO
not a clue what they are doing here, the guitars are mixed pretty good,
so i'm just gonna stick with what the 'tallica tab says
e----------------------------------------------------------------|
B-8-8-8p7---10-10-10p8---12-12-12p10-12p10\8-10-10p8\7-8-8p7\5-7-|
G---------7------------9-----------------------------------------|
D----------------------------------------------------------------|
A----------------------------------------------------------------|
E----------------------------------------------------------------|

e----------------------------------------------------------------|
B-8-8-8p7---10-10-10p8---12-12-12p10-12p10\8-10-10p8\7-8-8p7\5-7-|
G---------7------------9-----------------------------------------|
D----------------------------------------------------------------|
A----------------------------------------------------------------|
E----------------------------------------------------------------|

e----------------------------------------------------------------|
B-8-8-8-7---10-10-10-8---12-12-12-10-12p10\8-10-10p8\7-8-8p7\5-7-|
G---------7------------9-----------------------------------------|
D----------------------------------------------------------------|
A----------------------------------------------------------------|
E----------------------------------------------------------------|

e----------------------------------------------------------------|
B-8-8-8p7---10-10-10p8---12-12-12p10-12p10\8-10-10p8\7-8-8p7\5-7-|
G---------7------------9-----------------------------------------|
D----------------------------------------------------------------|
A----------------------------------------------------------------|
E----------------------------------------------------------------|

OUTRO

e--------------------| X4
B--------------------|
G--------------------|
D-------2------2---3-|
A-------2------2---3-|
E-000000-000000-000--|

e-----------------|
B-----------------|
G-----------------|
D---5---5---5---5-|
A---5---5---5---5-|
E-333-333-333-333-|
pm..  ..  ..  ..
e------------------------------------|
B------------------------------------|
G------------------------------------|
D-------2------2---3---5---5---5---5-|
A-------2------2---3---5---5---5---5-|
E-000000-000000-000--333-333-333-333-|
pm                   ..  ..  ..  ..
e------------------------------------|
B------------------------------------|
G------------------------------------|
D-------22---3---3--------22---3---3-|
A-------22---3---3--------22---3---3-|
E-00000000-111-111-000000000-111-111-|
pm         ..  ..            ..  ..
e-------------------------------------------|
B-------------------------------------------|
G-------------------------------------------|
D-------22---3---3-------22---5---5---5---5-|
A-------22---3---3-------22---5---5---5---5-|
E-00000000-111-111-00000000-333-333-333-333-|
pm         ..  ..           ..  ..  ..  ..
e------------------------------------|
B------------------------------------|
G------------------------------------|
D-------2------2---3-2222222-2222222-|
A-------2------2---3-2222222-2222222-|
E-000000-000000-000--0000000-0000000-|
pm                   ....... .......
Добавлено: 07.05.2012
Вам также может быть интересно:
Другие материалы по этой песне:
  • Аккорды и текст

Страница создана 07.05.2012
http://primanota.ru/dispatched/one-chords.htm
Привет, Гость.
Предлагаем пройти революционный курс по гитаре.
Подарок от PrimaNota.Ru, забирай!