PrimaNota.ru - самый крупный в мире бесплатный архив песенных текстов, аккордов, табулатур и нот


Dispatch - Id Come Running - аккорды и текст, видео

Регистрация Запомнить меня
Войти через:  Facebook Google Twitter Vk Yandex Mail.ru

Dispatch - Id Come Running - аккорды и текст, видео

Печатать
Просмотров: 92
Id Come Running
Dispatch
Artist - Dispatch
Song Title - "I'd Come Running"
Tabbed by: Carphone
This tab is all of my own work. G there.

The song is mellow with an easy beat to pick up.
Listen to the song as you play it an you should
get the rhythm pretty quickly, as most of it is
just power chord variations.

Intro:

e-------------------------------------------------
B------------------------------------------------
G-----------------------------------------------Repeated
D---6---(6)--X----3---3--3--X---------------   3 X
A---6---(6)--X----3---3--3--X---------------
E---4---(4)--X----1---1--1--X---------------

Then at the end of the Intro:

e-------------------------------
B-------------------------------
G-------6---8-------------------
D---6---6---8-------------------
A---6---4---6-------------------
E---4---------------------------

This pattern goes through the verse as well. The
only difference between the verse and the intro 
is that the final part of the intro is played 
less frequently. Listen to the CD to get the
feel for when its played.

Chorus:

"...If you'd call my name out loud..."

e-----------------------------------------------------------------------------
B-----------------------------------------------------------------------------
G-6--X---8--X------------------------6--X---8--X---------------------------
D-6--X---8--X---6--(6)---3---3--3----6--X---8--X---3--3--3--3--3--3--3
A-4--X---6--X---6--(6)---3---3--3----4--X---6--X---3--3--3--3--3--3--3
E---------------4--(6)---1---1--1------------------1--1--1--1--1--1--1

Near the end, during the later verse the chords are
strummed a little harder and played out more:

e------4--X-----------1--X--X--------
B------4--X-----------1--X--X--------
G------5--X-----------2--X--X--------
D--6---6--X----3------3--X--X--------
A--6---6--X----3---3--3--X--X--------
E--4---4--X----1---1--1--X--X--------

That's basically it. If anyone (including Friedz) has
any suggestions (or comments) please e-mail me at 
GBSparta48@aol.com
Thanks and remember....BC = 71Y!!

     
Добавлено: 04.09.2013
Другие материалы по этой песне:
  • Аккорды и текст

Страница создана 23.08.2013
http://primanota.ru/dispatch/id-come-running-chords.htm
Привет, Гость.
Предлагаем пройти революционный курс по гитаре.
Подарок от PrimaNota.Ru, забирай!