PrimaNota.ru - самый крупный в мире бесплатный архив песенных текстов, аккордов, табулатур и нот


Dispatch - Go Quietly - таба, видео

Регистрация Запомнить меня
Войти через:  Facebook Google Twitter Vk Yandex Mail.ru

Dispatch - Go Quietly - таба, видео

Печатать
Просмотров: 66
Brad Corrigan
The Power of the Self Soundtrack
Go Quietly
Tabbed by Owen Sakovics
www.tabsinonefellswoop.com

 E5	Bsus4	A	A	E5	Bsus4	A	A	B6	A6
-0------0-------0-------0-------0-------0-------0-------0-------x-------x--|
-5------4-------2-------2-------5-------4-------2-------2-------9-------7--|
-4------4-------2-------2-------4-------4-------2-------2-------8-------6--|
-2------2-------2-------2-------2-------2-------2-------2-------9-------7--|
----------------0-------0-----------------------0-------0-------0-------0--|
---------------------------------------------------------------------------|

 E	B	A	A
-0------0-------0-------0--|
-5------4-------2-------2--|
-4------4-------2-------2--|	x5
-2------2-------2-------2--|
----------------0-------0--|
---------------------------|

 E	B	A	B6	A6
-0------0-------0-------x-------x--|
-5------4-------2-------9-------7--|
-4------4-------2-------8-------6--|	x1
-2------2-------2-------9-------7--|
----------------0-------0-------0--|
-----------------------------------|

 E	B	A       A
-0------0-------0-------0--|
-5------4-------2-------2--|
-4------4-------2-------2--|	x3
-2------2-------2-------2--|
----------------0-------0--|
---------------------------|

 E	B	A       B6	A6	B6	A6	A6	Em
-0------0-------0-------x-------x-------x-------x-------x-------7--|
-5------4-------2-------9-------7-------9-------7-------7-------8--|
-4------4-------2-------8-------6-------8-------6-------6-------9--|	x1
-2------2-------2-------9-------7-------9-------7-------7-------9--|
----------------0-------0-------0-------0-------0-------0-------7--|
-------------------------------------------------------------------|

 Am	D	Em	Em
-0------2-------0-------0--|
-1------3-------0-------0--|
-2------2-------0-------0--|	x4
-2------0-------2-------2--|
-0--------------2-------2--|
----------------0-------0--|

 E5	Bsus4	A	A
-0------0-------x-------x--|
-0------0-------5-------5--|
-9------8-------6-------6--|	x4
-9------9-------7-------7--|
-7------7-------7-------7--|
----------------x-------x--|

 B6	A6	B6	A6	B6	A6	A6	Em
-x------x-------x-------x-------x-------x-------x-------7--|
-9------7-------9-------7-------9-------7-------7-------8--|
-8------6-------8-------6-------8-------6-------6-------9--|	x1
-9------7-------9-------7-------9-------7-------7-------9--|
-0------0-------0-------0-------0-------0-------0-------7--|
-----------------------------------------------------------|

 Am	D	Em	Em
-0------2-------0-------0--|
-1------3-------0-------0--|
-2------2-------0-------0--|	x4
-2------0-------2-------2--|
-0--------------2-------2--|
----------------0-------0--|

 E5	Bsus4	Aadd9	Aadd9
-0------0-------7-------7--|
-0------0-------5-------5--|
-9------8-------6-------6--|	x5
-9------9-------7-------7--|
-7------7------------------|
---------------------------|

 E5	Bsus4	Aadd9	Aadd9	Bsus4
-0------0-------7-------7-------0----|
-0------0-------5-------5-------0----|
-9------8-------6-------6-------8----|	x1
-9------9-------7-------7-------9----|
-7------7-----------------------7----|
-------------------------------------|
Добавлено: 30.10.2013
Другие материалы по этой песне:
  • Аккорды и текст

Страница создана 30.10.2013
http://primanota.ru/dispatch/go-quietly-chords.htm
Привет, Гость.
Предлагаем пройти революционный курс по гитаре.
Подарок от PrimaNota.Ru, забирай!